PrimaNota.ru - самый крупный в мире бесплатный архив песенных текстов, аккордов, табулатур и нот


Eddy Current Suppression Ring - Wrapped Up - таба, видео

Регистрация Запомнить меня
Войти через:  Facebook Google Twitter Vk Yandex Mail.ru

Eddy Current Suppression Ring - Wrapped Up - таба, видео

Печатать
Просмотров: 86
Авторы музыки: Michael David Young, Brad Raymond Barry, Brendan Huntley, Daniel Gordon Young
Авторы текста: Michael David Young, Brad Raymond Barry, Brendan Huntley, Daniel Gordon Young
band: Eddy Current Suppression Ring
song: Wrapped Up

requested by: gahligahli 

for the solo, dont count the - between numbers for an idea 
of timing because i didn't try to do that accurately. 
hopefully you can understand :D

Verse

|---------------------------------------|
|---------------------------------------|
|---------------------------------------|
|-4-4--4--4--4/6-6--4--2-4/6-6--4--2----|
|-2-2--0--0-----------------------------|
|---------------------------------------|

Chorus

|---------------------------------------------|
|--------------------------2-2-2-2---9-9-10-9-|
|--------------------------2-2-2-2---9-9-9--9-|
|--4-4-4-4-4-4-2-2-2-2-2-2-2-2-2-2---9-9-9--9-|
|--2-2-2-2-2-2-0-0-0-0-0-0-0-0-0-0------------|
|---------------------------------------------|


Solo

|---------------------------------------------------------------------|
|---------------------------------------------------------------------|
|---------------------------------------------------------------------|
|---------------------------------------------------------------------|
|-2--2-4--4-4--4-4/6-4-6-6/7-6--7--9--7--9--7--6--7-6-7-6-6-7-6-7-6-6-|
|---------------------------------------------------------------------|

|-------------------------------------------|
|-------------------------------------------|
|-----------------9-9------------9----9-8---|
|-----9-9-9-11-11-----11-11-9-11---11-----9-|
|-9-9---------------------------------------|
|-------------------------------------------|

|--------------------------------------------------------|
|-----------12----9----12----9----9-12-12-14-12-14-12-12-|
|-8-9-11-11----11---11----11---11------------------------|
|--------------------------------------------------------|
|--------------------------------------------------------|
|--------------------------------------------------------|

|-----14------------14--------------|
|-14b----14-12--14b----14-12-12-----|
|-----------------------------------| repeat 4 times
|-----------------------------------| 
|-----------------------------------|
|-----------------------------------|

|-----14-----14------14------14-----|
|-14b----14b-----14b-----14b--------|
|-----------------------------------| repeat until chorus
|-----------------------------------| sometimes strums notes
|-----------------------------------| and improvise
|-----------------------------------|


Добавлено: 14.04.2012
Другие материалы по этой песне:
  • Аккорды и текст

Страница создана 14.04.2012
http://primanota.ru/eddy-current-suppression-ring/wrapped-up-chords.htm
Привет, Гость.
Предлагаем пройти революционный курс по гитаре.
Подарок от PrimaNota.Ru, забирай!