PrimaNota.ru - самый крупный в мире бесплатный архив песенных текстов, аккордов, табулатур и нот


eddie palmieri - Puerto Rico - бас-таба, видео

Регистрация Запомнить меня
Войти через:  Facebook Google Twitter Vk Yandex Mail.ru

eddie palmieri - Puerto Rico - бас-таба, видео

Печатать
Просмотров: 57
Puerto Rico

Bass Riff 1                             Bass Riff 2
G-------------------------      G---10-8-6----------8-9-10-   
D-----10---10--8---6-6-9--      D-10-------10-10-10--------
A---10---10-------8-8-----      A--------------------------
E------------------------- 3x   E-------------------------- 2x

Bass Riff 3  (Verse)
G----------------------------------------
D----10-10-----8-8-----6-6-----5-5-3-----
A--10-8---8---8-6-6---6-4-4---5-----6-5-3
E-8----------6-------4-------3-----------

Bass Riff 1                             Bass Riff 2
G-------------------------      G---10-8-6----------8-9-10-   
D-----10---10--8---6-6-9--      D-10-------10-10-10--------
A---10---10-------8-8-----      A--------------------------
E------------------------- 3x   E-------------------------- 2x

Bass Riff 3  (Verse)
G----------------------------------------
D----10-10-----8-8-----6-6-----5-5-3-----
A--10-8---8---8-6-6---6-4-4---5-----6-5-3
E-8----------6-------4-------3-----------

Rumba
G----7----7------5-----7---
D--5----5---5--3-----5---5-
A-----5------------3-------
E-------------------------- repeat till end and fade out
Добавлено: 21.04.2016
Вам также может быть интересно:
Другие материалы по этой песне:
  • Аккорды и текст

Страница создана 21.04.2016
http://primanota.ru/eddie-palmieri/puerto-rico-chords.htm
Привет, Гость.
Предлагаем пройти революционный курс по гитаре.
Подарок от PrimaNota.Ru, забирай!