PrimaNota.ru - самый крупный в мире бесплатный архив песенных текстов, аккордов, табулатур и нот


eddie palmieri - Muneca - бас-таба, видео

Регистрация Запомнить меня
Войти через:  Facebook Google Twitter Vk Yandex Mail.ru

eddie palmieri - Muneca - бас-таба, видео

Печатать
Просмотров: 72
Muneca - Bass
Intro:  G|--------|--------|    --------|-------------
        D|--1-3-5-|--------|    --1-3-5-|-------------
        A|3-------|3-1-----|    3-------|3-1-------5-5
        E|--------|----4-3-| 2x --------|----4--3-3---

0:17 C      F   G       C                            F
G|------5---------|-----5-------5--|-----5-------5--|----------------
D|----5-----3---5-|---5-------5----|---5-------5----|-----3-------3--
A|--3-------------|-3-------3------|-3-------3------|---3-------3----
E|----------------|----------------|----------------|-1-------1------
  Muñeca quiero que me   perdones          Muñeca que yo no lo hago mas 

0:26 G                                               C (G C Bb A Ab G)
G|----------------|----------------|----------------|---------------
D|------5-------5-|-----5-------5--|-----5-------5--|---5-----------
A|----5-------5---|---5-------5----|---5-------5----|-3---3-1-------
E|--3-------3-----|-3-------3------|-3-------3------|---------5-4-3- 
 Me encontrastes en los brazos de otra nena 
                                     Son Diversiones que no valen na

0:37 C      F   G       C                            F
G|------5---------|-----5-------5--|-----5-------5--|----------------
D|----5-----3---5-|---5-------5----|---5-------5----|-----3-------3--
A|--3-------------|-3-------3------|-3-------3------|---3-------3----
E|----------------|----------------|----------------|-1-------1------
 Muñeca Yo a ti te quiero mucho     y si vuelves tendremos felicidad 

    G               C
G|----------------|---------------|
D|------5-------5-|---5-----------|
A|----5-------5---|-3---3-1-------|
E|--3-------3-----|---------5-4-3-| 
  te daré mi cariño y mi besos 

0:50 C      F        C                       F        C
G|------5---------|-----5-------5--|-----5----------|-----5-3-2---------
D|----5---------3-|---5-------5----|---5---------3--|--2-5-----5----5--5
A|--3---------3---|-3-------3------|-3---------3----|-3-----------------
E|----------1-----|----------------|---------1------|-------------------
  y Yo te juro que no lo hago mas Mi Muneca 
                                    y Yo te juro que no lo hago mas
Rumba  1:02
G|-------------
D|----5-------- 
A|-7-----5--3--
E|------------- repeat over lyrics call and response till end and Fade.
   E  G  D  C 

Tabbed by echevere@yahoo.com
Добавлено: 21.04.2016
Вам также может быть интересно:
Другие материалы по этой песне:
  • Аккорды и текст

Страница создана 21.04.2016
http://primanota.ru/eddie-palmieri/muneca-chords.htm
Привет, Гость.
Предлагаем пройти революционный курс по гитаре.
Подарок от PrimaNota.Ru, забирай!