PrimaNota.ru - самый крупный в мире бесплатный архив песенных текстов, аккордов, табулатур и нот


Eddie Harris - Freedom Jazz Dance - таба, видео

Регистрация Запомнить меня
Войти через:  Facebook Google Twitter Vk Yandex Mail.ru

Eddie Harris - Freedom Jazz Dance - таба, видео

Печатать
Просмотров: 95
Авторы музыки: Eddie Harris

Title : Freedom Jazz Dance
Artist : Eddie Harris
Tabbed By : Ron Slade
Tuning : Standard EADGBE
Style :  Funk - Jazz
Time Signature: 
4/4http://by7fd.bay7.hotmail.msn.com/cgi-bin/options?curmbox=F000000001&a=66fe81ff9716048c3b03a307ff31e530
Options
Tempo 96 or so (can float)

Main Comping figure  (Bb7#9) 2 bar pattern that repeats

E---------------------------------------------------------------------
B---------------------------------------------------------------------
G--------6-----------6------------------------------------------------
D--------6-----------6------------------------------------------------
A--------5-----------5------------------------------------------------
E--6-6---6-----6-6---6-3---4---5--------------------------------------
   1 & 2 & 3 & 4 & 1 & 2 & 3 & 4 &

Play walking Bass notes G G# A as quarter notes, all other notes are
eighth including chords.  Play Bb Bb with a shuffle feel - giving the
first note 3/4 of the time and the second note 1/4 of the time.  Vary the
chord timing, don't play the same thing twice in a row - but keep the
walking Bass line rigid.  Sometimes I like to drop or add a note to the
chord or skip it altogether - whatever sounds good works.


Third phrase Comping figure

E----------------------------------------------------------------------
B----------------------------------------------------------------------
G----------------------------------------------------------------------
D--6-----7-------8-------9-------10------11------12------13----15------
A--6-----7-------8-------9-------10------11------12------13----15------
E--6-----7-------8-------9-------10------11------12------13----15------
   1 & 2 & 3 & 4 & 1 & 2 & 3 & 4 & 1 & 2 & 3 & 4 & 1 & 2 & 3 & 4 &

All chords get full value - that is until next chord is sounded.  Vary by
playing the bass then the 2 fourths - short long short long a backward
shuffle in a way.

     
Добавлено: 19.06.2013
Вам также может быть интересно:
Другие материалы по этой песне:

Страница создана 02.06.2012
http://primanota.ru/eddie-harris/freedom-jazz-dance-chords.htm
Привет, Гость.
Предлагаем пройти революционный курс по гитаре.
Подарок от PrimaNota.Ru, забирай!