PrimaNota.ru - самый крупный в мире бесплатный архив песенных текстов, аккордов, табулатур и нот


Edda - A Femszivu Fiu - аккорды и текст, таба, видео

Регистрация Запомнить меня
Войти через:  Facebook Google Twitter Vk Yandex Mail.ru

Edda - A Femszivu Fiu - аккорды и текст, таба, видео

Печатать
Просмотров: 125
Уроки эстрадного вокала в Санкт-Петербурге
A Femszivu Fiu
Edda
Tabed by: VARGA ADRIAN
made in: BEOGRAD
vidzge86@yahoo.com
---------------------------------------------------------
BAND: EDDA
SONG: A FEMSZIVU FIU
--------------
Bm/D: xx0432
Am7:  x02010
C: x32000

Intro:

Em G D    Am7 , Em G D   Am7 , Em Bm Em Bm

Verse:
C        D            Em
Fejed folot mulnak el az evek,
C         D           Em
nem tudod mi lesz meg beloled
C           D             Em
Apad szavai mind lekopnak rolad,
      C            Bm/D       Em
erzed nem szeretnek at neznek rajtad

Em G D Am7

C              D         Em
A kereszt utig,mindennap eljutsz
C         D           Em
senki nem var,nem jon eled
  C           D             Em
Haza menel de nem kernek beloled
            C            Bm/D          Em
Aszt uzenik maradj ott hol eddig lehetel.

Bridge:
Em G D Am7

Ref:
     Em        D            Em
Csak meny, sok hoszu ev var rad,
Bm      Em        Bm/D         C  Bm/D
sorsunk egybefort,meny, vidd tovabb
  Am                    Em     Bm          C    D       Em
a hajnal agyat bont neked,megpihen rajta kemeny femszived!

solo:
Em D Em Bm Em Bm/D C Bm/D Am Em Bm C D Em

-14-15-14-------14-15-14-------14-15-14----12-------------------------e
----------15-12----------15-12----------15----15-12-------------------h
----------------------------------------------------14----------------g
-------------------------------------------------------14-12----------d
-------------------------------------------------------------14-12----a
----------------------------------------------------------------------E


-16p-16p-16p--12-14-12---12-14-12--12-14-12---12-14-12---19p-17-15-14----e
----------------------12---------12--------12---------12-----------------h
-------------------------------------------------------------------------g
-------------------------------------------------------------------------d
-------------------------------------------------------------------------a
-------------------------------------------------------------------------E


---------12-15-17-19-19-20-19-20-19-17-15-15-14-------------e
15-12-15----------------------------------------------------h
------------------------------------------------------------g
------------------------------------------------------------d
------------------------------------------------------------a
------------------------------------------------------------E


Brige:
Em G D Am7

C              D         Em
A kereszt utig,mindennap eljutsz
C         D           Em
senki nem var,nem jon eled
  C           D             Em
Haza menel de nem kernek beloled
            C            Bm/D          Em
Aszt uzenik maradj ott hol eddig lehetel.

Bridge:
Em G D Am7

Ref: x2
     Em        D            Em
Csak meny, sok hoszu ev var rad,
Bm      Em        Bm/D         C  Bm/D
sorsunk egybefort,meny, vidd tovabb
  Am                    Em     Bm          C    D       Em
a hajnal agyat bont neked,megpihen rajta kemeny femszived!

solo:

Em D Em Bm Em Bm/D C Bm/D Am Em Bm C D Em

Добавлено: 25.05.2012
Другие материалы по этой песне:
  • Аккорды и текст

Страница создана 25.05.2012
http://primanota.ru/edda/a-femszivu-fiu-chords.htm
Привет, Гость.
Предлагаем пройти революционный курс по гитаре.
Подарок от PrimaNota.Ru, забирай!