PrimaNota.ru - самый крупный в мире бесплатный архив песенных текстов, аккордов, табулатур и нот


Edane - Ikuti - таба, видео

Регистрация Запомнить меня
Войти через:  Facebook Google Twitter Vk Yandex Mail.ru

Edane - Ikuti - таба, видео

Печатать
Просмотров: 72
                   IKUTI


                                        EDANE
Lead Guitar



     H        E  E   Q      H        E  E  E  E      E  E  E  Q    E   Q
E||-----------------------|-----------------------|-------------------------|
B||-----------------------|-----------------------|-------------------------|
G||-----------------------|--2--------L--2--2--2--|--L--2--2--0-------------|
D||-----------------------|--2--------L--2--2--2--|--L--2--2--2-------------|
A||-----------------------|--0--------L--0--0--0--|--L--0--0--0----0h--3----|
E||--------------0h--3----|-----------------------|-------------------------|


                                                              PM PM PM
  H        Q    E  E    E  E  Q.     E   Q         H        E  E  E  E
-----------------------|------------------------|-----------------------|
--3--------L-----------|------------------------|--------------2--2--3--|
--2--------L-----------|--------0---------------|--2--------L--2--2--2--|
--0--------L----0------|-----4------------------|--2--------L--2--2--2--|
-------------------4s--|--5---------------------|--0--------L--0--0--0--|
-----------------------|---------------0h--3----|-----------------------|


  PM PM PM
  E  E  E  Q    E   Q       H        Q    E  E      E  E  Q.     E   Q
-------------------------|-----------------------|------------------------|
--3--2--2--0-------------|--3--------L-----------|------------------------|
--2--2--2--2-------------|--2--------L-----------|--------0---------------|
--2--2--2--2-------------|--0--------L----0------|-----4------------------|
--0--0--0--0----0h--3----|-------------------4s--|--5---------------------|
-------------------------|-----------------------|---------------0h--3----|


  H        E  E  E  E     E  E  E  Q    E   Q      H        Q    E.   S
-----------------------|-------------------------|-----------------------|
-----------------------|-------------------------|--3--------L----3s---6-|
--2--------L--2--2--2--|--L--2--2--0-------------|--2--------L----2s---5-|
--2--------L--2--2--2--|--L--2--2--2-------------|--0--------L-----------|
--0--------L--0--0--0--|--L--0--0--0----0h--3----|-----------------------|
-----------------------|-------------------------|-----------------------|


     v  ^                                   PM PM PM   
  E  S. E   E  E  T E   Q       H        E  E  E  E   
-----------------------------|-----------------------|
--L--6--6s--5--5--L----------|--------------2--2--3--|
--L--5--5s--4--4--L----------|--2--------L--2--2--2--|
-----------------------------|--2--------L--2--2--2--|
-----------------------------|--0--------L--0--0--0--|
--------------------0h--3----|-----------------------|


  PM PM PM                                   PH
  E  E  E  Q    E  Q       H        Q.       E      H        E  E    Q
------------------------|------------------------|-------------------------|
--3--2--2--0------------|--3--------L------------|-------------------------|
--2--2--2--2------------|--2--------L------------|-------------------------|
--2--2--2--2------------|--0--------L------------|-------------------------|
--0--0--0--0----0--3----|------------------------|-------------------------|
------------------------|------------------<>3~--|--L--------L--3s--12\----|


       PM PM PM        PH
  Q    E  E  E  Q      E      E  E  E  E  E   E  Q
---------------------------|---------------------------|
---------------------------|---------------------------|
---------------------------|---------------------------|
---------------------------|---------------------------|
--2-------------2----<>4~--|--L-----5-----5p--0--------|
--0----0--0--0--0----------|-----0-----0---------3~----|


       PM PM PM               PM PM PM PM PM
  Q    E  E  E  Q    E     E  E  E  E  E  E  Q
------------------------|--L----------------------|
---------------------3--|--L--3--3--3--3--2-------|
---------------------2--|--L--2--2--2--2-----2----|
---------------------2--|--L--0--0--0--0----------|
--2-------------2-------|-------------------------|
--0----0--0--0--0-------|-------------------------|


       PM PM PM        PH                          PH
  Q    E  E  E  Q      E      E  E  E  E  E   E    Q
---------------------------|-----------------------------|
---------------------------|-----------------------------|
---------------------------|-----------------------------|
---------------------------|-----------------------------|
--2-------------2----<>4~--|--L-----5-----5p--0----------|
--0----0--0--0--0----------|-----0-----0---------<>3~----|


       PM PM PM               PM PM PM PM  PM
  Q    E  E  E  Q    E     E  E  E  E  E   E  Q
------------------------|--L------------------------|
---------------------3--|--L--3--3--3--3p--2--------|
---------------------2--|--L--2--2--2--2------------|
---------------------2--|--L--0--0--0--0------------|
--2-------------2-------|---------------------------|
--0----0--0--0--0-------|---------------------3~----|

                                                           whammy bar
  W                   W                   H.           E   E
-------------------|-------------------|------------------14---------|
-------------------|-------------------|------------------17b--------|
-------------------|-------------------|-----------------------------|
-------------------|-------------------|-----------------------------|
--2----------------|--L----------------|--L------------L-------------|
--0----------------|--L----------------|--L------------L-------------|


      whammy bar whammy bar whammy bar whammy
  E   E          E          E          E
--L--14---------14---------14---------14-----|
--L--17pb-------17pb-------17b--------17pb---|
---------------------------------------------|
---------------------------------------------|
---------------------------------------------|
---------------------------------------------|


  W                   W                   H        E    Q     E
-------------------|-------------------|--------------------------|
-------------------|-------------------|--------------/12---------|
-------------------|-------------------|--------------/11---------|
-------------------|-------------------|---------------------/9\--|
--2----------------|--L----------------|--L--------L--------------|
--0----------------|--L----------------|--L--------L--------------|


                              PM PM PM
  Q    Q.     E  Q       Q    E  E  E  Q    E     E  E  E  E  E   E  Q
----------------------|------------------------|---------------------------|
----------------------|------------------------|---------------------------|
----------------------|------------------------|---------------------------|
--L-------------------|------------------------|---------------------------|
----------------------|--2-------------2----4--|--L-----5-----5p--0--------|
--------------0--3----|--0----0--0--0--0-------|-----0-----0---------3~----|


       PM PM PM               PM PM PM PM PM              PM PM PM
  Q    E  E  E  Q    E     E  E  E  E  E  E  Q       Q    E  E  E  Q    E
------------------------|--L-----------------------|------------------------|
---------------------3--|--L--3--3--3--3--2--------|------------------------|
---------------------2--|--L--2--2--2--2--2--------|------------------------|
---------------------2--|--L--0--0--0--0--0--------|------------------------|
--2-------------2-------|--------------------------|--2-------------2----4--|
--0----0--0--0--0-------|--------------------3~----|--0----0--0--0--0-------|


                                   PM PM PM          
  E  E  E  E  E   E  Q        Q    E  E  E  Q    E
---------------------------|------------------------|
---------------------------|---------------------3--|
---------------------------|---------------------2--|
---------------------------|---------------------2--|
--L-----5-----5p--0--------|--2-------------2-------|
-----0-----0---------3~----|--0----0--0--0--0-------|


     PM PM PM PM PM        
  E  E  E  E  E  E  Q        Q.     Q.     Q       W
--L-----------------------|---------------------|-------------------|
--L--3--3--3--3--2--------|---------3-----------|-------------------|
--L--2--2--2--2--2--------|---------2-----------|-------------------|
--L--0--0--0--0--0--------|--2------0-----------|-------------------|
--------------------------|--0-------------2----|--L----------------|
--------------------3~----|----------------0----|--L----------------|


   E  E  E  E  E  E  E  E     E  E  E  E  E  E  Q
---0--0--0--0--0--0--0--0--|--0--0--0--0--0--0--0----|
--/5--5--5--3--3--3--5--5--|--5--3--3--3--5--5--5----|
---------------------------|-------------------------|
---------------------------|-------------------------|
---------------------------|-------------------------|
---------------------------|-------------------------|


  Q.     Q.     Q       W                    E  E  E  E  E  E  E  E
---------------------|-------------------|---0--0--0--0--0--0--0--0--|
---------3-----------|-------------------|--/5--5--5--3--3--3--5--5--|
---------2-----------|-------------------|---------------------------|
--2------0-----------|-------------------|---------------------------|
--0-------------2----|--L----------------|---------------------------|
----------------0----|--L----------------|---------------------------|


  E  E  E  E  E  E  Q      W                   W
--0--0--0--0--0--0--0----|-------------------|-------------------|
--5--3--3--3--5--5--5----|-------------------|--3----------------|
-------------------------|--0----------------|--2----------------|
-------------------------|--0----------------|--0----------------|
-------------------------|--5----------------|-------------------|
-------------------------|--3----------------|-------------------|


  H.           E   E
-------------------0--|
------------------/5--|
----------------------|
----------------------|
--2------------L------|
--0------------L------|


  E  E  S  S  E  E   E  E   E
--L--0--0--L--L----------------|
--L--L--5s-3p-0----------------|
-----------------2p--0---------|
------------------------2p--0--|
-------------------------------|
-------------------------------|


  W                   E  E  E  Q    E  Q       E  E  E  Q    E  E  E
-------------------|-----------0------------|-------------------------|
-------------------|--------3-------3-------|-------------------------|
--0----------------|-----2-------------2----|--------0----------0-----|
--0----------------|--0---------------------|-----4----------5-----L--|
--5----------------|------------------------|--2--------3----------L--|
--3----------------|------------------------|-------------------------|


     PM PM
  E  E  Q    E  E  Q       W                   H.           Q
------------------------|-------------------|---------------------|
-----3--3----3----------|-------------------|---------------------|
-----2--2----2----------|-------------------|---------------------|
--L--0--0----0----------|--2----------------|--L------------------|
--L---------------------|--0----------------|--L------------------|
----------------0--3----|-------------------|---------------3~----|


                PH                            PH
  H        E    Q     E     H        E  E     Q        W                
-------------------------|--------------------------|-------------------|
----------------------3--|--L--------L--------------|-------------------|
----------------------2--|--L--------L--------------|-------------------|
--2--------L----------0--|--L--------L--------------|--2----------------|
--0--------L--<>3~-------|--------------------------|--0----------------|
-------------------------|--------------0~--<>3~----|-------------------|


  H.           Q
---------------------|
---------------------|
---------------------|
--L------------------|
--L------------------|
---------------3~----|


  H.           E   E
----------------------|
----------------------|
----------------------|
--2------------L------|
--0------------L--/5--|
----------------------|


     PM PM PM PM
  E  E  E  E  E  E  Q
-------------------------|
-------------------------|
-------------------------|
-------------------------|
--L--4--5--4--5----------|
-----------------0--3----|


              PM PM PM
  H        E  E  E  E
-----------------------|
--------------2--2--3--|
--------------2--2--2--|
--2--------L--2--2--2--|
--0--------L-----------|
-----------------------|


  PM PM PM PM PM
  E  E  E  E  Q    Q
-------------------------|
--3--2--2--0--0----------|
--2--2--2--2--2----------|
--2--2--2--2--2----------|
-------------------------|
-------------------3~----|


  H        E  Q     E
-----------------------|
--------------------3--|
--------------------2--|
--2--------L--------0--|
--0--------L--3~-------|
-----------------------|


  H.           Q
---------------------|
--L------------------|
--L------------------|
--L------------------|
---------------------|
---------------3~----|


              PM PM PM
  H        E  E  E  E
-----------------------|
--------------2--2--3--|
--------------2--2--2--|
--2--------L--2--2--2--|
--0--------L-----------|
-----------------------|


  PM PM PM PM PM
  E  E  E  E  Q    Q
-------------------------|
--3--2--2--0--0----------|
--2--2--2--2--2----------|
--2--2--2--2--2----------|
-------------------------|
-------------------3~----|


  H        E  Q     E
-----------------------|
--------------------3--|
--------------------2--|
--2--------L--------0--|
--0--------L--3~-------|
-----------------------|


  H.           Q
---------------------|
--L------------------|
--L------------------|
--L------------------|
---------------------|
---------------3~----|


       PM PM PM
  Q    E  E  E  Q    E
------------------------|
------------------------|
------------------------|
------------------------|
--2-------------2----4--|
--0----0--0--0--0-------|


  E  E  E  E  E   E  Q
---------------------------|
---------------------------|
---------------------------|
---------------------------|
--L-----5-----5p--0--------|
-----0-----0---------3~----|


       PM PM PM
  Q    E  E  E  Q    E
------------------------|
---------------------3--|
---------------------2--|
---------------------2--|
--2-------------2-------|
--0----0--0--0--0-------|


     PM PM PM PM  PM
  E  E  E  E  E   E  Q
--L------------------------|
--L--3--3--3--3p--2--------|
--L--2--2--2--2------------|
--L--0--0--0--0------------|
---------------------------|
---------------------3~----|


       PM PM PM
  Q    E  E  E  Q    E
------------------------|
------------------------|
------------------------|
------------------------|
--2-------------2----4--|
--0----0--0--0--0-------|


  E  E  E  E  E   E  Q
---------------------------|
---------------------------|
---------------------------|
---------------------------|
--L-----5-----5p--0--------|
-----0-----0---------3~----|


       PM PM PM
  Q    E  E  E  Q    E
------------------------|
---------------------3--|
---------------------2--|
---------------------2--|
--2-------------2-------|
--0----0--0--0--0-------|


     PM PM PM PM  PM
  E  E  E  E  E   E  Q
--L-----------------------|
--L--3--3--3--3p--2-------|
--L--2--2--2--2------2----|
--L--0--0--0--0-----------|
--------------------------|
--------------------------|


  W                   W
-------------------|-------------------|
-------------------|-------------------|
-------------------|-------------------|
-------------------|-------------------|
--2----------------|--L----------------|
--0----------------|--L----------------|


  H.           S  S   S  S
---------------------------|
---------------------------|
---------------------------|
---------------------------|
--L---------------------10-|
--L------------0h-7h-12----|


  S S  S  S  S E   S Q.      E
--------------------------------|
--------------------------------|
----9-12p-9----9~----9~---------|
--9---------12------------------|
--------------------------------|
-----------------------------3--|


       PM PM PM
  Q    E  E  E  Q    E
------------------------|
------------------------|
------------------------|
------------------------|
--2-------------2----4--|
--0----0--0--0--0-------|


  E  E  E  E  E   E  Q
---------------------------|
---------------------------|
---------------------------|
---------------------------|
--L-----5-----5p--0--------|
-----0-----0---------3~----|


       PM PM PM
  Q    E  E  E  Q    E
------------------------|
---------------------3--|
---------------------2--|
---------------------2--|
--2-------------2-------|
--0----0--0--0--0-------|


     PM PM PM PM PM
  E  E  E  E  E  E  Q
--L-----------------------|
--L--3--3--3--3--2--------|
--L--2--2--2--2--2--------|
--L--0--0--0--0--0--------|
--------------------------|
--------------------3~----|


  Q.     Q.     Q       W
---------------------|-------------------|
---------3-----------|-------------------|
---------2-----------|-------------------|
--2------0-----------|-------------------|
--0-------------2----|--L----------------|
----------------0----|--L----------------|


   E  E  E  E  E  E  E  E
---0--0--0--0--0--0--0--0--|
--/5--5--5--3--3--3--5--5--|
---------------------------|
---------------------------|
---------------------------|
---------------------------|


  E  E  E  E  E  E  Q
--0--0--0--0--0--0--0----|
--5--3--3--3--5--5--5----|
-------------------------|
-------------------------|
-------------------------|
-------------------------|


  Q.     Q.     Q       W
---------------------|-------------------|
---------3-----------|-------------------|
---------2-----------|-------------------|
--2------0-----------|-------------------|
--0-------------2----|--L----------------|
----------------0----|--L----------------|


   E  E  E  E  E  E  E  E
---0--0--0--0--0--0--0--0--|
--/5--5--5--3--3--3--5--5--|
---------------------------|
---------------------------|
---------------------------|
---------------------------|


  E  E  E  E  E  E  Q
--0--0--0--0--0--0--0----|
--5--3--3--3--5--5--5----|
-------------------------|
-------------------------|
-------------------------|
-------------------------|


  W                   W
-------------------|-------------------|
-------------------|--3----------------|
--0----------------|--2----------------|
--0----------------|--0----------------|
--5----------------|-------------------|
--3----------------|-------------------|


  H.           E   E
-------------------0--|
------------------/5--|
----------------------|
----------------------|
--2------------L------|
--0------------L------|


  E  E  S  S  E  S  S  E  E   E
--L--0--0--L--L------------------|
--L--L--5s-3p-0------------------|
-----------------2h-4p-0---------|
--------------------------2p--0--|
---------------------------------|
---------------------------------|


  W                   E  E  E  Q    E  Q
-------------------|-----------0------------|
-------------------|--------3-------3-------|
--0----------------|-----2-------------2----|
--0----------------|--0---------------------|
--5----------------|------------------------|
--3----------------|------------------------|


  E  E  E  Q    E  E  E
-------------------------|
-------------------------|
--------0----------0-----|
-----4----------5-----L--|
--2--------3----------L--|
-------------------------|


     PM PM
  E  E  Q    E  E  Q       W
------------------------|-------------------|
-----3--3----3----------|-------------------|
-----2--2----2----------|-------------------|
--L--0--0----0----------|--2----------------|
--L---------------------|--0----------------|
----------------0--3----|-------------------|


  H.           Q
---------------------|
---------------------|
---------------------|
--L------------------|
--L------------------|
---------------3~----|


                PH
  H        E    Q     E
-------------------------|
----------------------3--|
----------------------2--|
--2--------L----------0--|
--0--------L--<>3~-------|
-------------------------|


                    PH
  H        E  E     Q
--------------------------|
--L--------L--------------|
--L--------L--------------|
--L--------L--------------|
--------------------------|
--------------0~--<>3~----|


  W                   H.           Q
-------------------|---------------------|
-------------------|---------------------|
-------------------|---------------------|
--2----------------|--L------------------|
--0----------------|--L------------------|
-------------------|---------------3~----|


  H.           E  S  S
-----------------------|
-----------------------|
-----------------------|
--2------------L--6s-7-|
--0------------L--4s-5-|
-----------------------|


     PM PM PM PM
  E  E  E  E  E  E  Q
-------------------------|
-------------------------|
-------------------------|
--L----------------------|
--L--4--5--4--5----------|
-----------------0--3----|


              PM PM PM
  H        E  E  E  E
-----------------------|
--------------2--2--3--|
--------------2--2--2--|
--2--------L--2--2--2--|
--0--------L-----------|
-----------------------|


  PM PM PM PM PM
  E  E  E  E  Q    Q
-------------------------|
--3--2--2--0--0----------|
--2--2--2--2--2----------|
--2--2--2--2--2----------|
-------------------------|
-------------------3~----|


  H        E  Q     E
-----------------------|
--------------------3--|
--------------------2--|
--2--------L--------0--|
--0--------L--3~-------|
-----------------------|


  H.           Q
---------------------|
--L------------------|
--L------------------|
--L------------------|
---------------------|
---------------3~----|


              PM PM PM
  H        E  E  E  E
-----------------------|
--------------2--2--3--|
--------------2--2--2--|
--2--------L--2--2--2--|
--0--------L-----------|
-----------------------|


  PM PM PM PM PM
  E  E  E  E  Q    Q
-------------------------|
--3--2--2--0--0----------|
--2--2--2--2--2----------|
--2--2--2--2--2----------|
-------------------------|
-------------------3~----|


  H        E  Q     E     W
-----------------------|-------------------|
--------------------3--|--L----------------|
--------------------2--|--L----------------|
--2--------L--------0--|--L----------------|
--0--------L--3~-------|-------------------|
-----------------------|-------------------|


  W                   W
-------------------|-------------------|
--L----------------|--L----------------|
--L----------------|--L----------------|
--L----------------|--L----------------|
-------------------|-------------------|
-------------------|-------------------|


  H        E   Q.         W
-----------------------|--2----------------|
--L--------L-----------|--3----------------|
--L--------L-----------|--2----------------|
--L--------L-----------|--0----------------|
-----------------------|-------------------|
--------------12\------|-------------------|


    PH    PH    PH    PH    PH
    E.    E.    E.    E.    Q
----------------------------------|
----------------------------------|
----------------------------------|
--<>7---<>7---<>7---<>7---<>7b----|
----------------------------------|
----------------------------------|


             PH   PH     PH
  H          E    E.     E.
------------------------------|
------------------------------|
------------------------------|
--L--------<>4----------------|
----------------<>7b---<>7b---|
------------------------------|


  E  E  S S   Q     E    T   S.E
-----------------------------------|
-----------------------------------|
-----------------------------------|
-----------------------------------|
--7--5------<>4~----L\--/4s-12-L\--|
--------7-5------------------------|


  T. T. T. S T. T. T. T. T. T. T. T. T T. T.
---------------------------------------------|
---------------------------------------------|
----------------------------------5-------4--|
----------------------7--------------0-2-----|
-----------8-0--5h-7-----0--5--7-------------|
--0--5--7------------------------------------|


  S  S S  T  S  S S  S S T. T. T. T. T. T. T.
-------5p-0-10p-0-9p-0-6---------------------|
--0h-3---------------------------------------|
-------------------------6--6--6--7--7--7--7-|
---------------------------------------------|
---------------------------------------------|
---------------------------------------------|


  T.  T.T. T. T.  T.T. T. T.  T.T. T. T.  T.T
----------------------------------------------|
----------------------------------------------|
--7--10-7--6--7--10-7--6--7--10-7--6--7--10-7-|
----------------------------------------------|
----------------------------------------------|
----------------------------------------------|


  T T. T. T.  T.Q     E  E    Q     T
--------------------------------------|
--------------------------------------|
--L-7--6--7--10-7\----L---------------|
--------------------------------------|
-------------------------4s--12\----L-|
--------------------------------------|


  Q     E  E  E  E   E  E
--------7-----7-------------|
-----------7---------7------|
--9b----L--------9b-----9b--|
----------------------------|
----------------------------|
----------------------------|


  E  E   E  E  E  E  Q
---------7-----7-------------|
--7---------7-----7----------|
-----9b--L-----------9br~----|
-----------------------------|
-----------------------------|
-----------------------------|


                 PH   PH  PH
  E   E   Q      S    S   Q.
--7------------<>7----------------|
-----10b--L--------<>10-----------|
------------------------<>9b------|
----------------------------------|
----------------------------------|
----------------------------------|


    PH         PH        PH
    S  S S S   S S S S   Q.      S  S
-----------------------------------11s-|
---------------------------------------|
--<>9p-7-----<>7-----------------------|
---------9-7-----9-9-7-<>9~------L-----|
---------------------------------------|
---------------------------------------|


   TP      TP      TP
   Q.      Q.      Q
--14------17------11----|
------------------10----|
------------------------|
------------------------|
------------------------|
------------------------|


   TP      TP      TP
   Q.      Q.      Q
--14------17------11----|
------------------10----|
------------------------|
------------------------|
------------------------|
------------------------|


   TP    TP
   Q     E.   E   Q.       S
--14----17---19--------------|
-----------------22b~------L-|
-----------------------------|
-----------------------------|
-----------------------------|
-----------------------------|


   W       W    W    W    W   W
   E.      E.   E.   E.   E   E
---------------------------------|
---Lpbr---19---17---15---17--15--|
---------------------------------|
---------------------------------|
---------------------------------|
---------------------------------|


   W
   W
--------------------|
--12----------------|
--------------------|
--------------------|
--------------------|
--------------------|


  E.  E.  E  E.  E.  E     W
------------------------|-------------------|
--3---3---3--3---0---2--|--L----------------|
--2---2---2--2---0---2--|--L----------------|
------------------------|-------------------|
------------------------|-------------------|
------------------------|-------------------|


  E.  E.  E  E.  E  E.
------------------------|
--3---3---3--3----------|
--2---2---2--2---2--L---|
--------------------2---|
------------------------|
------------------------|


    NH    NH    NH   NH    NH    NH
    E.    E.    E    E.    E.    E
-------------------<>5---------<>5--|
--------------<>5--------<>5--------|
------------------------------------|
--------<>7-------------------------|
--<>7-------------------------------|
------------------------------------|


       NH    NH    NH   NH    NH
  E    E.    E.    E    E.    E.
--L-------------------------------|
-----<>5--------------------------|
-----------<>7--------<>7---------|
-----------------<>7--------------|
----------------------------<>4---|
----------------------------------|


    NH    NH
    E.    H.           S
-------------------------|
-------------------------|
-------------------------|
--<>7--------------------|
--------<>7------------L-|
-------------------------|


  W                   W
-------------------|-------------------|
-------------------|-------------------|
-------------------|--0----------------|
-------------------|--0----------------|
--L----------------|--5----------------|
-------------------|--3----------------|


  W                   H.           E   E
-------------------|-------------------0--|
--3----------------|------------------/5--|
--2----------------|----------------------|
--0----------------|----------------------|
-------------------|--2------------L------|
-------------------|--0------------L------|


  E  E  S  S  E  E   E  E   E
--L--0--0--L--L----------------|
--L--L--5s-3p-0----------------|
-----------------2p--0---------|
------------------------2p--0--|
-------------------------------|
-------------------------------|


  W                   E  E  E  Q    E  Q
-------------------|-----------0------------|
-------------------|--------3-------3-------|
--0----------------|-----2-------------2----|
--0----------------|--0---------------------|
--5----------------|------------------------|
--3----------------|------------------------|


  E  E  E  Q    E  E  E
-------------------------|
-------------------------|
--------0----------0-----|
-----4----------5-----L--|
--2--------3----------L--|
-------------------------|


     PM PM
  E  E  Q    E  E  Q       W
------------------------|-------------------|
-----3--3----3----------|-------------------|
-----2--2----2----------|-------------------|
--L--0--0----0----------|--2----------------|
--L---------------------|--0----------------|
----------------0--3----|-------------------|


  H.           Q
---------------------|
---------------------|
---------------------|
--L------------------|
--L------------------|
---------------3~----|


                PH
  H        E    Q     E
-------------------------|
----------------------3--|
----------------------2--|
--2--------L----------0--|
--0--------L--<>3~-------|
-------------------------|


                    PH
  H        E  E     Q
--------------------------|
--L--------L--------------|
--L--------L--------------|
--L--------L--------------|
--------------------------|
--------------0~--<>3~----|


  W                   H.           Q
-------------------|---------------------|
-------------------|---------------------|
-------------------|---------------------|
--2----------------|--L------------------|
--0----------------|--L------------------|
-------------------|---------------3~----|


  H.           E   E
----------------------|
----------------------|
----------------------|
--2------------L------|
--0------------L--/5--|
----------------------|


     PM PM PM PM
  E  E  E  E  E  E  Q
-------------------------|
-------------------------|
-------------------------|
-------------------------|
--L--4--5--4--5----------|
-----------------0--3----|


              PM PM PM
  H        E  E  E  E
-----------------------|
--------------2--2--3--|
--------------2--2--2--|
--2--------L--2--2--2--|
--0--------L-----------|
-----------------------|


  PM PM PM PM PM
  E  E  E  E  Q    Q
-------------------------|
--3--2--2--0--0----------|
--2--2--2--2--2----------|
--2--2--2--2--2----------|
-------------------------|
-------------------3~----|


  H        E  Q     E
-----------------------|
--------------------3--|
--------------------2--|
--2--------L--------0--|
--0--------L--3~-------|
-----------------------|


  H.           Q
---------------------|
--L------------------|
--L------------------|
--L------------------|
---------------------|
---------------3~----|


              PM PM PM
  H        E  E  E  E
-----------------------|
--------------2--2--3--|
--------------2--2--2--|
--2--------L--2--2--2--|
--0--------L-----------|
-----------------------|


  PM PM PM PM PM
  E  E  E  E  Q    Q
-------------------------|
--3--2--2--0--0----------|
--2--2--2--2--2----------|
--2--2--2--2--2----------|
-------------------------|
-------------------3~----|


  H        E  Q     E
-----------------------|
--------------------3--|
--------------------2--|
--2--------L--------0--|
--0--------L--3~-------|
-----------------------|


  H.           Q        W
---------------------|-------------------|
--L------------------|-------------------|
--L------------------|-------------------|
--L------------------|--2----------------|
---------------------|--0----------------|
---------------3~----|-------------------|


  H.           Q
---------------------|
---------------------|
---------------------|
--L------------------|
--L------------------|
---------------3~----|


  H        E  Q     E
-----------------------|
--------------------3--|
--------------------2--|
--2--------L--------0--|
--0--------L--3~-------|
-----------------------|


  Q.     E   H            W
-----------------------|-------------------|
--L--------------------|-------------------|
--L--------------------|-------------------|
--L--------------------|--2----------------|
-----------------------|--0----------------|
---------0~--3~--------|-------------------|


  H.           Q
---------------------|
---------------------|
---------------------|
--L------------------|
--L------------------|
---------------3~----|


  H        E  Q     E     W
-----------------------|-------------------|
--------------------3--|--L----------------|
--------------------2--|--L----------------|
--2--------L--------0--|--L----------------|
--0--------L--3~-------|-------------------|
-----------------------|-------------------|


  H         H
---------------------|----|----|----||
---------------------|----|----|----||
---------------------|----|----|----||
---------------------|----|----|----||
--7\-----------------|----|----|----||
--5\-----------------|----|----|----||
Добавлено: 20.02.2014
Другие материалы по этой песне:

Страница создана 20.02.2014
http://primanota.ru/edane/ikuti-chords.htm
Привет, Гость.
Предлагаем пройти революционный курс по гитаре.
Подарок от PrimaNota.Ru, забирай!