PrimaNota.ru - самый крупный в мире бесплатный архив песенных текстов, аккордов, табулатур и нот


Ed Sheeran - I Dont Know - таба, видео

Регистрация Запомнить меня
Войти через:  Facebook Google Twitter Vk Yandex Mail.ru

Ed Sheeran - I Dont Know - таба, видео

Печатать
Просмотров: 171
Уроки эстрадного вокала в Санкт-Петербурге
-------------------------------------------------------------------------------
                             nog geen naam - Boy Masius
-------------------------------------------------------------------------------
Tabbed by:
E-mail:

Tuning:

e|--------------3-------------------3---------------3-------------------3----|
B|--------------3-------------------3---------------3-------------------3----|
G|---------------------------------------------------------------------------|
D|--------0-h-2---------------0-h-2------------------------------0-h-2-------|
A|--0-h-2---------------0-h-3-----------------0-h-2--------------------------|
E|--------------------------------------0-h-3--------------0-h-2-------------|

refrein: Em-C-G-Dm

************************************

| /   slide up
| \   slide down
| h   hammer-on
| p   pull-off
| ~   vibrato
| +   harmonic
| x   Mute note
| b   Bend
| pb  Pre-bend
| br  Bend release
| pbr Pre-bend release
| brb Bend release bend

************************************
Добавлено: 01.10.2015
Другие материалы по этой песне:
  • Аккорды и текст

Страница создана 01.10.2015
http://primanota.ru/ed-sheeran/i-dont-know-chords.htm
Привет, Гость.
Предлагаем пройти революционный курс по гитаре.
Подарок от PrimaNota.Ru, забирай!