PrimaNota.ru - самый крупный в мире бесплатный архив песенных текстов, аккордов, табулатур и нот


Ed Prosek - California - таба, видео

Регистрация Запомнить меня
Войти через:  Facebook Google Twitter Vk Yandex Mail.ru

Ed Prosek - California - таба, видео

Печатать
Просмотров: 36
Hi everybody,

Since I really enjoyed listening to the song I tried to figure out the tabs.
This is how far I've come and I'm always open for feedback!

Greetz from Holland! (blavblabla)
Enjoy!


Intro / Verse
e|-------4------4------7-----7-----6-----6------2-----2---------|
B|------5------5------9-----9-----7-----7------4-----4----------|
G|-----4------4------8-----8-----6-----6------3-----3-----------|
D|---2------2------6-----6-----4-----4------1-----1-------------|
A|--------------------------------------------------------------|
E|--------------------------------------------------------------|

Bride

e|-------4------4-------------2-----2-------4---------4---------|
B|------5------5------------4-----4--------5-----5-7-5-7-5-4----|
G|-----4------4------------3-----3--------6---------------------|
D|---2------2------------1-----1---------6----------------------|
A|-------------------------------------4------------------------|
E|--------------------------------------------------------------|


Chorus (A - E - B)

(You can improvise in the Chorus on how to finger pick on the melody)
Добавлено: 25.05.2016
Другие материалы по этой песне:
  • Аккорды и текст

Страница создана 25.05.2016
http://primanota.ru/ed-prosek/california-chords.htm
Привет, Гость.
Предлагаем пройти революционный курс по гитаре.
Подарок от PrimaNota.Ru, забирай!