PrimaNota.ru - самый крупный в мире бесплатный архив песенных текстов, аккордов, табулатур и нот


Ed Gerhard - Junk - таба, видео

Регистрация Запомнить меня
Войти через:  Facebook Google Twitter Vk Yandex Mail.ru

Ed Gerhard - Junk - таба, видео

Печатать
Просмотров: 172
---------------------------------------------------------------------
           JUNK - Paul McCartney (Arranged by Ed Gerhard)
---------------------------------------------------------------------

Tabbed by: Karpassieni
Tuning: Standard EADGBe

Watch Sungha Jung's version from YouTube. It may help you!!!


e|-------------------------------------0----------------------------|
B|-5--6--5-----3--5--3-----1---3---1---1---1-------------0---1---3--|
G|-5--7--5-----4--4--4---------0---0-------2---2-----2---0----------|
D|-------------------------2-------------------------3-------2---3--|
A|-0----------------------------------------------------------------|
E|-------------4-----------3---------------1---------1--------------|

e|-----------------------------------------------|
B|--------1---1---------1-----1--------------1---|
G|-2----------2p0-------0-----0-----------0------|
D|-3--------------------2h3---3h2------2---------|
A|------------3-----3---------------3------------|
E|-1---------------------------------------------|


e|-------------------------------------0----------------------------|
B|-5--6--5-----3--5--3-----1---3---1---1---1-------------0---1---3--|
G|-5--7--5-----4--4--4---------0---0-------2---2-----2---0----------|
D|-------------------------2-------------------------3-------2---3--|
A|-0----------------------------------------------------------------|
E|-------------4-----------3---------------1---------1--------------|

e|-----------------------------------------------|
B|--------1---1---------1-----1--------------1---|
G|-2----------2p0-------0-----0-----------0------|
D|-3--------------------2h3---3h2------2---------|
A|------------3-----3---------------3------------|
E|-1---------------------------------------------|

e|-1-------0---------------------------------------0---1-------0-----------|
B|-0-------1---3-------1---0---1-------3---1---3-------1-------1---3-----1-|
G|-1---0---0-------0-------0-------0-------0---0-------3---1---0------0----|
D|-0-----------------------0---------------2-----------0-------------------|
A|---------3-------------------------------3-------------------3-----------|
E|-------------------------3-----------------------------------------------|

e|---------------------0-------0---5---7---8---0-------0---0-------0-----5-|
B|-0---1-------3---1-------6-------------------0---6-------0---6-----------|
G|-0-------0-------0---------------------------0-----------4----------4----|
D|-0---------------2---------------------------------------5---------------|
A|-----------------0---0-----------------------5---------------------------|
E|-3-----------------------------------------------------------------------|

e|-0--------------------------------------------------------------|
B|-1-------0---1---3-------1---1---------1-----1--------------0---|
G|-2---2---0-----------2-------2p0-------0-----0-----------1------|
D|-3---3-------2---3---3-----------------2h3---3p2------2---------|
A|-----------------------------3-----3---------------3------------|
E|-----1---------------1------------------------------------------|

e|-------------------------------------0----------------------------|
B|-5--6--5-----3--5--3-----1---3---1---1---1-------------0---1---3--|
G|-5--7--5-----4--4--4---------0---0-------2---2-----2---0----------|
D|-------------------------2-------------------------3-------2---3--|
A|-0----------------------------------------------------------------|
E|-------------4-----------3---------------1---------1--------------|

e|-----------------------------------------------|
B|--------1---1---------1-----1--------------1---|
G|-2----------2p0-------0-----0-----------0------|
D|-3--------------------2h3---3h2------2---------|
A|------------3-----3---------------3------------|
E|-1---------------------------------------------|

e|-1-------0---------------------------------------0---1-------0-----------|
B|-0-------1---3-------1---0---1-------3---1---3-------1-------1---3-----1-|
G|-1---0---0-------0-------0-------0-------0---0-------3---1---0------0----|
D|-0-----------------------0---------------2-----------0-------------------|
A|---------3-------------------------------3-------------------3-----------|
E|-------------------------3-----------------------------------------------|

e|---------------0------0-------0---5---7---8---0-------0---0-------0-----5-|
B|-0---1-------3------------6-------------------0---6-------0---6-----------|
G|-0-------0------------------------------------0-----------4----------4----|
D|-0--------------------------------------------------------5---------------|
A|----------------------0-----------------------5---------------------------|
E|-3------------------------------------------------------------------------|

e|-0---------------------------------------|
B|-1----------0---1---3-------1---1--------|
G|-2------1---0-----------1-------0--------|
D|-3------2-------2---3---2-------0h2------|
A|-----------------------------------------|
E|--------3---------------3----------------|

Добавлено: 11.03.2012
Другие материалы по этой песне:
  • Аккорды и текст

Страница создана 11.03.2012
http://primanota.ru/ed-gerhard/junk-chords.htm
Привет, Гость.
Предлагаем пройти революционный курс по гитаре.
Подарок от PrimaNota.Ru, забирай!