PrimaNota.ru - самый крупный в мире бесплатный архив песенных текстов, аккордов, табулатур и нот


Ed Alleyne-johnson - Oxford Suite - таба, видео

Регистрация Запомнить меня
Войти через:  Facebook Google Twitter Vk Yandex Mail.ru

Ed Alleyne-johnson - Oxford Suite - таба, видео

Печатать
Просмотров: 151
-------------------------------------------------------------------------------
                                   Oxford Suite – Ed Alleyne Johnson
-------------------------------------------------------------------------------
Tabbed by: Merllin
Email: merllin77@yahoo.gr

Tuning: Standard tuning


Chords  : A  G  F  F 

                                                                               M I
e||----------------------|----------------------|----------------------|----------------------|
B||----------------------|----------------------|----------------------|----------------------|
G||----------------------|----------------------|----------------------|--------------12-14---|
D||--14-15-14------------|--14-15-17---15-14----|----------------------|------11-12-14--------|
A||----------------------|----------------------|--17-17--15-15--12-12-|-12-14----------------|
E||----------------------|----------------------|----------------------|----------------------|
                M II               M III                          M IV
e||----------------------|-----------------------|---------------------------|---------------------|
B||----------------------|-----------------------|---------------------------|-------------------13|
G||-16-16----------------|-----------------------|-9-10-9--------9-10-9------|----------------9----|
D||--------17-17---17----|15-15-14-14-12-12-10-10|--------10-7----------10-7-|--5-5--7---9-10------|
A||----------------------|-----------------------|---------------------------|---------------------|
E||----------------------|-----------------------|---------------------------|---------------------|

e||----------------------|----------------------|----------------------|----------------------|
B||-13-12-10-12-13-------|-12--10---------------|-12-13-12-10-12--10---|----------------------|
G||----------------------|--------9-------------|-------------------9--|--10-9----------------|
D||----------------------|----------------------|----------------------|-------10--7----------|
A||----------------------|----------------------|----------------------|----------------------|
E||----------------------|----------------------|----------------------|----------------------|

e||----------------------|----------------------|----------------------|----------------------|
B||----------------------|----------------------|----------------------|----------------------|
G||----------------------|------------9---------|------------12--------|-----------10---------|
D||-7-9-7--5-5-7---------|----10-9-10---10-9-10-|----10-9-10---10-9-10-|---10-9-10------------|
A||----------------------|-12-------------------|-10-------------------|-8--------------------|
E||----------------------|----------------------|----------------------|----------------------|
                                                       
e||---------------------------|----------------------|----------------------|----------------------|
B||---------------------------|----------------------|----------------------|----------------------|
G||-9-9-----------------------|-------  M I  --------|-------  M II  -------|-------  M III  ------|
D||----12-12--10-10—9-9-------|----------------------|----------------------|----------------------|
A||----------------------12-12|----------------------|----------------------|----------------------|
E||---------------------------|----------------------|----------------------|----------------------|

e||----------------------|----------------------|----------------------|----------------------|
B||----------------------|----------------------|----------------------|----------------------|
G||------  M IV  --------|----------------------|----------------------|----------------------|
D||----------------------|----------------------|----------------------|----------------------|
A||----------------------|----------------------|----------------------|----------------------|
E||----------------------|----------------------|----------------------|----------------------|


It's not the whole song but it's a try. Any corrections are acceptable. ;-)

http://www.muntfish.com/alleyne-johnson/
Добавлено: 28.03.2012
Другие материалы по этой песне:
  • Аккорды и текст

Страница создана 28.03.2012
http://primanota.ru/ed-alleyne-johnson/oxford-suite-chords.htm
Привет, Гость.
Предлагаем пройти революционный курс по гитаре.
Подарок от PrimaNota.Ru, забирай!