PrimaNota.ru - самый крупный в мире бесплатный архив песенных текстов, аккордов, табулатур и нот


Econoline Crush - Deeper - текст песни, таба, видео

Регистрация Запомнить меня
Войти через:  Facebook Google Twitter Vk Yandex Mail.ru

Econoline Crush - Deeper - текст песни, таба, видео

Печатать
Просмотров: 89
Авторы музыки: Dan Yaremko

Song: Deeper
Artist: Econoline Crush
Album: The Devil You Know
As tabbed by Joe Muggah


Verse A (Guitar 1)
e-------------------------------------------------------------
B-------------------------------------------------------------
G--7-----\-3-----/-7-----\-3-----/-7-----\-3-----/-7-----\-3--
D--x-------x-------x-------x-------x-------x-------x-------x--
A--5-----\-1-----/-5-----\-1-----/-5-----\-1-----/-5-----\-1--
E-------------------------------------------------------------


Verse 2 (Guitar 2)
e-------------------------------------------------------------
B-----------------------6-------------------------------------
G-----7-----5-----8-----------7-----6-----8--7--5-------------
D--0-----0-----0-----0-----0-----0-----0----------------------
A-------------------------------------------------------------
E-------------------------------------------------------------


Pre-Chorus
e-------------------------------------------------------------
B-------------------------------------------------------------
G-----0-----0-----0-----0-----0-----0-----0-----0-------------
D--2-----2-----1-----1-----2-----2-----1-----1----------------
A-------------------------------------------------------------
E-------------------------------------------------------------
("Don't let them beat you...")


Chorus A (Guitar 1 on an acoustic)
e------0-0------0-0------0-0------0-0------0-0------0-0-------
B------1-1------1-1------0-0------0-0------0-0------0-0-------
G--0-0-0-0--0-0-0-0--2-2-2-2--2-2-2-2------0-0------0-0-------
D--2-2-2-2--2-2-2-2--2-2-2-2--2-2-2-2--2-2-2-2--2-2-2-2-------
A--3-3-3-3--3-3-3-3--0-0-0-0--0-0-0-0--2-2-2-2--2-2-2-2-------
E--------------------------------------0-0-0-0--0-0-0-0-------
("Oh my love...is never ending...")

(continued)          end on
e------0-0------0-0--|-----0-0------0-0------0-0------0-0--0--
B------0-0------0-0--|-----1-1------1-1------0-0------0-0--0--
G------0-0------0-0--|-0-0-0-0--0-0-0-0--2-2-2-2--2-2-2-2--0--
D--2-2-2-2--2-2-2-2--|-2-2-2-2--2-2-2-2--2-2-2-2--2-2-2-2--2--
A--2-2-2-2--2-2-2-2--|-3-3-3-3--3-3-3-3--0-0-0-0--0-0-0-0--2--
E--0-0-0-0--0-0-0-0--|-------------------------------------0--


Chorus B (Guitar 2)
e--0---0---0-0---0---0---0---0-0---0-0-0--0-------------------
B--3---1---3-3---1---3---3---0-0---0-0-0--0-------------------
G--0---0---0-0---0---0---0---0-0---2-2-2--0-------------------
D--2---2---2-2---2---2---2---2-2---2-2-2--2-------------------
A--3---3---3-3---3---3---3---3-3---0-0-0--2-------------------
E-----------------------------------------0-------------------


Riff
e-------------------------------------------------------------
B-------------------------------------------------------------
G----7----7--5v-----7----7--5v-----7----7--5v-----7----7--5v--
D--0----0---------0----0---------0----0---------0----0--------
A-------------------------------------------------------------
E-------------------------------------------------------------


Verse A, B
Pre-Chorus
Chorus A, B
Riff
Verse A, B
Pre-Chorus
Chorus A, B

There is a small solo that is composed of guitar noise and is
very hard to tab.




_________________________________________________________________
     
Добавлено: 18.10.2013
Другие материалы по этой песне:
  • Аккорды и текст

Страница создана 27.09.2013
http://primanota.ru/econoline-crush/deeper-chords.htm
Привет, Гость.
Предлагаем пройти революционный курс по гитаре.
Подарок от PrimaNota.Ru, забирай!