PrimaNota.ru - самый крупный в мире бесплатный архив песенных текстов, аккордов, табулатур и нот


Ecliptyka - We Are The Same - таба, видео

Регистрация Запомнить меня
Войти через:  Facebook Google Twitter Vk Yandex Mail.ru

Ecliptyka - We Are The Same - таба, видео

Печатать
Просмотров: 98
Tab made by @KevinGates_a7x (Follow on Twitter) / "Ecliptyka - We Are The Same"


Tune string 6 to D (DADGBE)

h = hammer on
p = pull off
/ = slide upward
~ = vibrato
\ = slide downward


Riff 1 Intro:

Guitar 1

E----------------------|-------------------|-------------------|--------------------------|
B----------------------|-------------------|-------------------|--------------------------|
G----------------------|-------------------|-------------------|--------------------------|
D--0-0-14-0-14h15-0-15~|-0-14-0-14h15-0-15~|-0-14-0-14h15-0-15~|-14-15-15/17~-15-14-15~---|
A----------------------|-------------------|-------------------|--------------------------|
D----------------------|-------------------|-------------------|--------------------------|

Guitar 2

E----------------------|-------------------|-------------------|--------------------------|
B----------------------|-------------------|-------------------|--------------------------|
G----------------------|-------------------|-------------------|--------------------------|
D--0-0-17-0-17h19-0-19~|-0-17-0-17h19-0-19~|-0-17-0-17h19-0-19~|-17-19-19/20~-19-17-19~---|
A----------------------|-------------------|-------------------|--------------------------|
D----------------------|-------------------|-------------------|--------------------------|



Riff 2

E--------------------------------------------|----------------------------------------------|
B----------------13~---------------13~-------|----------------13~---------------13~---------|
G-------14----14----------14----14-----------|-------14----14----------14----14-------------|
D----------12----------------12--------------|----------12----------------12----------------|
A--------------------------------------------|----------------------------------------------|
D-0-0-0--------------0-0---------------0-0-0-|0-0-0----------------0-0----------------0-0-0-|


Verse Part 1

E---------------------------------------------|--------------------------------------------------|
B---------------------------------------------|--------------------------------------------------|
G---------------------------------------------|--------------------------------------------------|
D---------------------------------------------|--------------------------------------------------|
A--------------5~-------------5~--------------|--------------5~-----------------5~---------------|
D-0-0-0--7-5-7-----0-0--7-5-7----0-0-0--0-0-0-|-0-0-0--7-5-7------0-0-0--7-5-7------0-0-0--0-0-0-|


Verse Part 2

E------------------------------------------------------------------------------------------------|
B------------------------------------------------------------------------------------------------|
G------------------------------------------------------------------------------------------------|
D--5-5--7-5--------------5-5--7-5--------------3-3--5-3--------------2-2--3-2--------------------|
A--5-5--5-5--------------5-5--5-5--------------3-3--3-3--------------3-3--3-3-------------5~---7~|
D--5-5--5-5--5-5-5-5-5-5-5-5--5-5--5-5-5-5-5-5-3-3--3-3--3-3-3-3-3-3-2-2--2-2--2-2-2-2-2-2-------|

CHORUS


E------------------------------------------------------|
B------------------------------------------------------|
G-------------3---------3--5--------7------------------|
D--5-3-2-0----3---------3--5--------7------------------| 3x
A----------3--1--1-1-1--1--3--3-3-3-5--5-5-5-5-5-5-----|
D------------------------------------------------------|

E-------------------------------------------------------------------|
B-------------------------------------------------------------------|
G-----------------5---------5------------------3--------5-----------|
D--5-3-2-0--------5---------5------5-3-2-0-----3--------5-----------|
A----------3------3--3-3-3--3--3-3---------3---1--1-1-1-3--3-3------|
D-------------------------------------------------------------------|

Repeat everything from Riff 2 until the CHORUS. After the end of the intro riff with:
E------------------|
B------------------|
G------------------|
D--0---------------|
A--0---------------|
D--0---------------|

Bridge


E-----------------------|-------------------------------|
B-----------------------|-------------------------------|
G--3----------5---------|---3-----------5---------------|
D--3----3-----5----0----|---3-----3-----5---------------|
A--1----3-----3----0----|---1-----3-----3---------------|
D-------3----------0----|---------3---------------------|



Pré-solo 2x

E-------------8---------|  |------------------------------|
B-----------------------|  |-------------8~---------------|
G---7-10-9-10---10-9-10-|  |---7-10-9-10----9-10-7~~------|
D-----------------------|3x|------------------------------|
A-----------------------|  |------------------------------|
D-----------------------|  |------------------------------|



Solo 2x

E-17p13----------13-17p13----------------13-| E-18p13----------13-18p13----------------13-|
B-------15----15----------15----------15----| B-------15----15----------15----------15----|
G----------14----------------14----14-------| G----------15----------------15----15-------|
D-------------------------------15----------| D-------------------------------15----------|
A-------------------------------------------| A-------------------------------------------|
D-------------------------------------------| D-------------------------------------------|

E-15p12----------12-15p12----------------12-|
B-------13----13----------13----------13----|
G----------12----------------12----12-------|
D-------------------------------14----------|
A-------------------------------------------|
D-------------------------------------------|

FAST !

E--13p-10----------10-13p10-----------|-15p12----------12-15p12---------------|
B---------11----11----------11--------|-------13----13----------13------------|
G------------10----------------10-----|----------12----------------12---------|
D-------------------------------------|---------------------------------------|
A-------------------------------------|---------------------------------------|
D-------------------------------------|---------------------------------------|


Riff after solo (2x)

Guitar 1

E----------------------8-8-----------------|   |--------------------------------------------|
B------------------------------------------|   |--------------------------------------------|
G--7-7-10-10-9-9-10-10-----10-10-9-9-10-10-|3x |--7-7-10-10-9-9-10-10-12-12--10-9-7~--------|
D------------------------------------------|   |--------------------------------------------|
A------------------------------------------|   |--------------------------------------------|
D------------------------------------------|   |--------------------------------------------|


Guitar 2

E--------------------------12-12-------------------|  |------------------------------------------|
B--------------------------------------------------|  |------------------------------------------|
G--10-10-14-14-12-12-14-14-------14-14-12-12-14-14-|  |--10-10-14-14-12-12-14-14-15-15--12 14-10~|
D--------------------------------------------------|3x|------------------------------------------|
A--------------------------------------------------|  |------------------------------------------|
D--------------------------------------------------|  |------------------------------------------|


Back to intro riff, then the final:


E-----------------------------------------------------------------------|
B-----------------------------------------------------------------------|
G-----------------------------------------------------------------------|
D-----------------------------------------------------------------------| 2x
A---------------------------1-1-1-----1-1-1--3-3-3------3-3-3-----------|
D--0-0-0-0-----0-0-0-0--------------------------------------------------|




E------------------------------------------------------------|
B----------------13~---------------13~-----------------------|
G-------14----14----------14----14---------------------------|
D----------12----------------12------------------------------|
A------------------------------------------------------------|
D-0-0-0--------------0-0---------------0-0-0-0-0-0-0---------|


Follow : http://twitter.com/KevinGates_a7x
MSN : a7x_kevyngates6661@hotmail.com

Band website: http://www.myspace.com/ecliptyka
Добавлено: 30.05.2012
Другие материалы по этой песне:
  • Аккорды и текст

Страница создана 30.05.2012
http://primanota.ru/ecliptyka/we-are-the-same-chords.htm
Привет, Гость.
Предлагаем пройти революционный курс по гитаре.
Подарок от PrimaNota.Ru, забирай!