PrimaNota.ru - самый крупный в мире бесплатный архив песенных текстов, аккордов, табулатур и нот


Echovalve - Radiate - таба, видео

Регистрация Запомнить меня
Войти через:  Facebook Google Twitter Vk Yandex Mail.ru

Echovalve - Radiate - таба, видео

Печатать
Просмотров: 144
Уроки эстрадного вокала в Санкт-Петербурге
                             “Radiate” by Echovalve
-------------------------------------------------------------------------------
Tabbed by:EV6strings
Email:jay@echovalve.com

Tuning: low to high…C# G# C# F# Bb Eb

(do this 4 times) intro….

e|----------------------------------------------------------------------|
B|----------------------------------------------------------------------|
G|----------------------------------------------------------------------|
D|--------------------------4-------------------------------------------|
A|--------3p2-0-------2--0--4-------------------------------------------|
E|--2h4-0-------2h4-2-2--0--4-------------------------------------------|

Verse 2 times palm muted…then 2 times heavy…

e|----------------------------------------------------------------------|
B|----------------------------------------------------------------------|
G|----------------------------------------------------------------------|
D|------------3-2-2-2h3p2--------------3-2-2-2h3~~~---------------------|
A|----------5------------3-----------5----------------------------------|
E|--0-2-0-2------------------0-2-0-2------------------------------------|

Pre chorus fill….      (1st Chorus lead……1st time everytime…

e|----------------------------------------------------------------------|
B|-------------------------5-6-6/8-8-6-5-6-5h6p5------------------------|
G|---------------5-----5~~-----------------------7~~--------------------|
D|---------7/8-7--------------------------------------------------------|
A|--/8-7-5--------------------------------------------------------------|
E|----------------------------------------------------------------------|

(End 1st chorus lead)                  (chorus backing chords..always)
                                      Am    G    D
e|------------------6/8-6-5-5h6p5------0----0----0-----------------|
B|----5-6-6/8-8-6-5-6/8-6-5-5h6p5------0----0----0-----------------|
G|-5~~---------------------------------5----5----9-----------------|
D|-------------------------------------7----5----7-----------------|
A|-------------------------------------7----3----5-----------------|
E|-------------------------------------7----5----------------------|

2nd chorus lead….(1st time through is above..after that………

e|------------------/15-13-12----------------15------15------15-13---|
B|----5-6-6/8-8-6-5-----------15~~-13~~-12h13---12h13---12h13--------|
G|-5~~---------------------------------------------------------------|
D|-------------------------------------------------------------------|
A|-------------------------------------------------------------------|
E|-------------------------------------------------------------------|

e|-12-------------------------------------------------------------------|
B|---13/15-13-12-13---------12h13-12-13-13/15-13-13~~13-12---13---------|
G|------------------12-12h14-------------------------------14--14-12----|
D|----------------------------------------------------------------------|

                                Breakdown…repeat as necessary
e|--------------------------------------------------------------------|
B|----------12h13~~--12-----------------------------------------------|
G|-12-12h14-----------------------------------------------------------|
D|------------------------------2-xx---2-xx---2-xx---6-6--------------|
A|------------------------------2-xx---2-xx---2-xx---6-6--------------|
E|------------------------------2-xx-x-2-xx-x-2-xx-x-6-6--------------|

Back to chorus….finish the song!!!!

| /  slide up
|   slide down
| h  hammer-on
| p  pull-off
| ~  vibrato
| +  harmonic
| x  Mute note
===============================================================================
Добавлено: 22.06.2012
Вам также может быть интересно:
Другие материалы по этой песне:
  • Аккорды и текст

Страница создана 22.06.2012
http://primanota.ru/echovalve/radiate-chords.htm
Привет, Гость.
Предлагаем пройти революционный курс по гитаре.
Подарок от PrimaNota.Ru, забирай!