PrimaNota.ru - самый крупный в мире бесплатный архив песенных текстов, аккордов, табулатур и нот


Echolyn - Human Lottery - таба, видео

Регистрация Запомнить меня
Войти через:  Facebook Google Twitter Vk Yandex Mail.ru

Echolyn - Human Lottery - таба, видео

Печатать
Просмотров: 113
Уроки эстрадного вокала в Санкт-Петербурге
-------------------------------------------------------------------------------
                         Human Lottery - Echolyn
-------------------------------------------------------------------------------
Tabbed by: RadicalMadness (mellocellist3)
E-mail: mello.cellist34@gmail.com

Tuning: Standard

Note: This is the first Echolyn song tab ever (on this website at least).
This one is very tough and goes extremely fast.

There are only 2 guitar parts but I show three because there are different effects between 3 parts.

Guitar 1 has a slight bit of a distortion, sounds like a typical electric guitar.

Guitar 2 is basically a copy of guitar 1 just used to play extra notes and such while the first guitar is
being played.

Guitar 3 has more of a electronic sound more synthetic, sounds similar to the keyboard but is NOT the keyboard.
I only tabbed out the guitar part not the keyboard part-there is a difference.

Some parts of the song have no guitar just keyboard and drums so I added in the chords to play if you need them.

Intro/Outro:

  Guitar 1
e|--------|------------------------------------|
B|--------|------------------------------------|
G|-pickup-|o---------------------------------o-| << Those mean *repeat*
D|--------|o---------------------------------o-| << X3
A|--------|--3-----0h3h5-3-----3---------------|
E|--5p3h5-|----5-5---------5-5---5-3h5-0h3h5---|
 |                                             |
 |Guitar 2                                     |
e|---------------------------------------------|
B|---------------------------------------------|
G|---------------------------------------------|
D|------------------------------5-6-7----------| Only on the Second repeat of Guitar 1 ^^
A|------------------------------5-6-7----------|
E|------------------------------3-4-5----------|

Can also be played like this: (can be played many ways I don't know the real way this band is super underground)
  Guitar 1
e|--------|------------------------------------|
B|--------|------------------------------------|
G|-pickup-|o---------------------------------o-|
D|--------|o-----------0---------------------o-| 
A|--0---0-|--3-0-0-0h3---3-0-0-3-0---0-----0---|
E|----3---|------------------------3---0h3-----|

  Guitar 1
e|--------------------------|
B|--------------------------|
G|--------------------------|
D|--------------------------|
A|-3-----0h3h5-3-----3------|
E|---5-5---------5-5--------|
 |                          |
 |Guitar 2                  |
e|--------------------------|
B|--------------------------|
G|--------------------------|
D|---------------------5-6--|
A|---------------------5-6--|
E|---------------------3-4--|

  Guitar 1
e|--------|------------------------------------|
B|--------|------------------------------------|
G|-pickup-|o---------------------------------o-|
D|--------|o---------------------------------o-| X3 again
A|--------|--3-----0h3h5-3-----3---------------|
E|--5p3h5-|----5-5---------5-5---5-3h5-0h3h5---|

e|----------------------|
B|----------------------|
G|----------------------|
D|----------------------|
A|-3-----0h3h5-3-----3--|
E|---5-5---------5-5----|

Verse 1: [Verse Chords]

Am G F G
Am G F E

  Guitar 3 with some vibrato
e|--------------------------|
B|--------------------------|
G|--9--7--5--7--9--7--5--4--|  before lyrics (it's those chords ^ but individual notes.)
D|--------------------------|  Then, keyboard comes in with single notes
A|--------------------------|
E|--------------------------|

Am                              Em
We bought into the promise of a better, greener better day

     Dm                     C                   B
That 7 years would buy us a piece of tomorrow's dream

   Am                              Em
We took it all for granted we were always to be rich

         Dm                   C                B
We could own what we made but owe more than we make

Pre Chorus:

  Guitar 1 (with keyboard)
e|------------------------------------------|
B|------------------------------------------|
G|----6----6----11---11---9----9----7----6-o|
D|--7----7----7----7----7----7----9----7---o| X2
A|------------------------------------------|
E|------------------------------------------|

Am                     F#m     
So, brother, could you spare a dime

A                        Am                E
For a cup of coffee or a smoke to pass the time

          Am               Dm     
While I'm standing in this God-forsaken line

   Am               Dm          Em
Of human lottery to shine, just shine

Chorus:
                                               Fill 1
Dm       Em    Am   C          Dm    Em     Am(short)
Mad with the impossible out of chaos is our dream
                                                (just keyboard this time)
Dm  Em    Am  C             Dm   Em          Am(short)
Too heavy for wings we will sink beneath its weight

Fill 1:

  Guitar 1
e|-----------------------|
B|-----------------------|
G|-----------------------|
D|-----------------------|
A|--0-3-5-6-5-3--0--2-3--|
E|-----------------------|

Verse 2:

Guitar 3 (with a bright electric vibrato-y effect to it)
e|------------------------|
B|------------------------|
G|o-----6------9----7--5-o|
D|o-7-7----------9-------o| X2
A|--------7-9-------------|
E|------------------------|

[Verse chords]
Used to be important in a white collar job
Used to make good money, now I'm lucky getting by
My wife is almost frantic, I'm too old for other work
If you can't do something for me, I'm bound to kill myself

  Guitar 1
e|------------------------------------------|
B|------------------------------------------|
G|o---6----6----11---11---9----9----7----6-o|
D|o-7----7----7----7----7----7----9----7---o| X2
A|------------------------------------------|
E|------------------------------------------|
 |Guitar 3
e|------------------------|
B|------------------------|
G|o-----6------9----7--5-o|
D|o-7-7----------9-------o| X2
A|--------7-9-------------|
E|------------------------|

[Pre-Chorus Chords]
Brother, it's not like me to ask
But I'm running short of everything
And nothing coming fast
When work is all I really need
From this God-forsaken line to shine, just shine

[Repeat Chorus]

Bridge:

  Guitar 1
e|------------------------------|-----------------------------------|-----------------------------|
B|------------------------------|-----------------------------------|-----------------------------|
G|-7h9p7------7h9p7-------------|o------7h9---------7---------------|-------7h9---------7--------o|
D|-------10p7-------10p7--10-7--|o-7h10-----7--7h10---10p7--7h10--7-|--7h10-----7--7h10---10p7-7-o|
A|------------------------------|-----------------------------------|-----------------------------|
E|------------------------------|-----------------------------------|-----------------------------|

e|-------------------------|
B|-------------------------|
G|o-----------------------o|
D|o-----------------------o| X4
A|-------------------------|
E|--3h5-5-0h3h5-5-0h3h5p3--|

Wah Wah Pedal here:

e|--------10h12--------------12----------12-----------------10h12--------------12-----------|
B|--10h13-------13p10--10h13----13p10h13----13p10h13--10h13-------13p10--10h13----13p10-10--|
G|------------------------------------------------------------------------------------------|
D|------------------------------------------------------------------------------------------|
A|------------------------------------------------------------------------------------------|
E|------------------------------------------------------------------------------------------|

e|--------10h12------------12----------12-----------------10h12------------12---------------|
B|--10h13-------13---10h13----13p10h13----13p10h13--10h13-------13--10h13----13-10h13-10~~--|
G|------------------------------------------------------------------------------------------|
D|------------------------------------------------------------------------------------------|
A|------------------------------------------------------------------------------------------|
E|------------------------------------------------------------------------------------------|

Interlude thing:
F      Em      Am
Saaaa  criiii  fiiiice

F      Em      A
Evvvv  ryyyyy  thiiing

  Guitar 3
e|--5///12--| Slowly slide up
B|----------| to around the 12th fret
G|----------| (probably higher it is just too hard to hear as it gets softer)
D|----------| getting softer as
A|----------| you get higher
E|----------|

e|-------------12b------------------------|
B|-----14b-------------------13-12--------|
G|----------10---------------------14-----|
D|--12--------------12-14-15----------14--|
A|----------------------------------------|
E|----------------------------------------|

e|-------------12b------------------------|
B|-----14b-------------------13-12----13b-|
G|----------10---------------------14-----|
D|--12--------------12-14-15--------------|
A|----------------------------------------|
E|----------------------------------------|

e|-------------12b------------------------|
B|--15------15---------------13-12----13b-|
G|------14-------------------------14-----|
D|------------------12-14-15--------------|
A|----------------------------------------|
E|----------------------------------------|

e|-----12b--------------------------------|
B|--15------15---------------13-12----13b-|
G|-------------14------------------14-----|
D|------------------12-14-15--------------|
A|----------------------------------------|
E|----------------------------------------|

The part where multiple people sing very different things:

Am      E      G      E    X2

Am      Am

Am      E      G      E    X2

This is where parts repeat from previous sections above ^^^
In this order:

Bridge
Interlude
Verse 3 (with parts from Verse 1)
Chorus - Fill 2 at the end

Fill 2:

e|--------------|
B|--------------|
G|------14------|
D|--12b----12b--|
A|--------------|
E|--------------|

Outro With Fill 3

Fill 3: Follows along with the keyboard part (its a pentatonic)

e|-----------------------------------------------------------------------|
B|-----------------------------------------------------------------------|
G|----------------------7------------------7h9p7----7--------------------|
D|-------7h10-7----7h10---10-7----7h10~----------10---10~---7h10p7----7--|
A|--7h10--------10-------------10-------10---------------10--------10----|
E|-----------------------------------------------------------------------|

End on A

************************************
|     KEY:
|
| /   slide up
| \   slide down
| h   hammer-on
| p   pull-off
| ~   vibrato
| +   harmonic
| x   Mute note
| b   Bend
| pb  Pre-bend
| br  Bend release
| pbr Pre-bend release
| brb Bend release bend
************************************
Добавлено: 27.12.2015
Другие материалы по этой песне:
  • Аккорды и текст

Страница создана 27.12.2015
http://primanota.ru/echolyn/human-lottery-chords.htm
Привет, Гость.
Предлагаем пройти революционный курс по гитаре.
Подарок от PrimaNota.Ru, забирай!