PrimaNota.ru - самый крупный в мире бесплатный архив песенных текстов, аккордов, табулатур и нот


Echoes Of Eternity - Ten Of Swords - таба, видео

Регистрация Запомнить меня
Войти через:  Facebook Google Twitter Vk Yandex Mail.ru

Echoes Of Eternity - Ten Of Swords - таба, видео

Печатать
Просмотров: 85
ECHOES OF ETERNITY
TEN OF SWORDS

Eb-Ab-Db-Gb-Bb-Eb

*=PALM MUTE

TABBED BY andherembrace



L
------------------------------------------------------------------------|
----------------------------------------------_------------_------------|
--------/7~-------------/9~------------/9----/ \----/7----/ \-----------|
---4/5-------------4/5-------------4/5----7-5-7-5-4----5-4-5-4---4------|
-7---------------7---------------7-----------------------------5---5----|
------------------------------------------------------------------------|
R
------------------------------------------------------------------------|
----------------------------------------------_------------_------------|
---2/4--4~---------2/4--/5~--------2/4-/9----/ \----/7----/ \--------P--|
-5---------------5---------------5--------7-5-7-5-4----5-4-5-4---4---H--|
---------------------------------------------------------------5---5-5~~|
------------------------------------------------------------------------|
RYTHM
------------------------------------------------------------------------|
------------------------------------------------------------------------|
--------------------------4---------------2-----------------------------|
--------------------------2---------------0----------4----------5-------|
-2--------*-*-*-------------------*-*----------*-*---2----*-*---3----15-|
-0--------0-0-0-------------------0-0----------0-0--------0-0--------15\|


0:12
L
------------------------------------------------------------------------|
----------------------------------------------_------------_------------|
--------/7~-------------/9~------------/9----/ \----/7----/ \-----------|
---4/5-------------4/5-------------4/5----7-5-7-5-4----5-4-5-4---4------|
-7---------------7---------------7-----------------------------5---5----|
------------------------------------------------------------------------|
R
------------------------------------------------------------------------|
----------------------------------------------_------------_------------|
---2/4--4~---------2/4--/5~--------2/4-/9----/ \----/7----/ \-----------|
-5---------------5---------------5--------7-5-7-5-4----5-4-5-4---4------|
---------------------------------------------------------------5---5----|
------------------------------------------------------------------------|
RYTHM
------------------------------------------------------------------------|
------------------------------------------------------------------------|
--------------------------4---------------2-----------------------------|
----------*-*--5----------2---------------0----------4----------5-------|
-2-------------3-------------------------------------2----------3-------|
-0--------0-0-----------------------------------------------------------|


0:23
L
-----------------------------------------------------------------|
-----------------------------------------------------------------|
-4-------------------------------4-------------------------------|
---***-4-***-4-*-5-*-5-*-4-*-4-*---***-4-***-4-*-5-*-5-*-4-*-4-*-|
---777---777---7---7---7---7---7---777---777---7---7---7---7---7-|
-----------------------------------------------------------------|
R
---------------------------------------------------------------|
---------------------------------------------------------------|
----------------------------------------5----------------------|
----------------------------------------5----------------------|
-2--------------------------------2222--3-|--------------------|
-0-|------------------------------0000-------------------------|


0:28
L
----------------------------------------------------------------|
----------------------------------------------------------------|
-5-------------------------------4------------------------------|
---***-5-***-5-*-7-*-7-*-5-*-5-*---***-4-***-5-*-7-***-5-****-5-|
---999---999---9---9---9---9---9---555---555---5---333---3333---|
----------------------------------------------------------------|
R
---------------------------------------------------------------|
---------------------------------------------------------------|
-7--------------------------------4----------------------------|
-7--------------------------------5------4---4---7------5---5--|
-5-|------------------------------5------5---5---3------3---3--|
---------------------------------------------------------------|


0:33
BOTH
-----------------------------------------------------------------|
-----------------------------------------------------------------|
-4-------------------------------4-------------------------------|
---***-4-***-4-*-5-*-5-*-4-*-4-*---***-4-***-4-*-5-*-5-*-4-*-4-*-|
---777---777---7---7---7---7---7---777---777---7---7---7---7---7-|
-----------------------------------------------------------------|

-----------------------------------------------------------------------|
-----------------------------------------------------------------------|
-5-------------------------------4-------------------------------------|
---***-5-***-5-*-7-*-7-*-5-*-5-*-5-****-4-****-4-**-7-****-5-****-5-**-|
---999---999---9---9---9---9---9-5-5555-5-5555-5-55-3-3333-3-3333-3-33-|
-----------------------------------------------------------------------|


-----------------------------------------------------------------|
-----------------------------------------------------------------|
-4-------------------------------4-------------------------------|
---***-4-***-4-*-5-*-5-*-4-*-4-*---***-4-***-4-*-5-*-5-*-4-*-4-*-|
---777---777---7---7---7---7---7---777---777---7---7---7---7---7-|
-----------------------------------------------------------------|

------------------------------------------|
------------------------------------------|
-5---------------------------------0---4--|
---***-5-***-5-*-7-*-7-*-5-*-5-*-----4-5--|
---999---999---9---9---9---9---9-5-----3--|
------------------------------------------|


0:52
GT1
-----------------------------------------------------------------|
-----------------------------------------------------------------|
-4-------------------------------4-------------------------------|
---***-4-***-4-*-5-*-5-*-4-*-4-*---***-4-***-4-*-5-*-5-*-4-*-4-*-|
---777---777---7---7---7---7---7---777---777---7---7---7---7---7-|
-----------------------------------------------------------------|
GT2
-----------------------------------------------------------------|
-----------------------------------------------------------------|
-----------------------------------------------------------------|
-5-------------------------------5-------------------------------|
---***-5-***-5-*-7-*-7-*-5-*-5-*---***-5-***-5-*-7-*-7-*-5-*-5-*-|
---888---888---8---8---8---8---8---888---888---8---8---8---8---8-|


GT1
---------------------------------------------------------------|
---------------------------------------------------------------|
-5----------------------------------4--------------------------|
---***-5-***-5-*-7-*-7-*-5-*-5-*----5------4---4---7------5---5|
---999---999---9---9---9---9---9----5------5---5---3------3---3|
---------------------------------------------------------------|
GT2
---------------------------------------------------------------|
---------------------------------------------------------------|
------------------------------------4--------------------------|
-7----------------------------------5------4---4---7------5---5|
--*-*-*-7-*-*-*-7-*-9-*-9-*-7-*-7-*-5------5---5---3------3---3|
--101010-101010---10-10--10--10--10----------------------------|


1:01
BOTH
-------------------------------------|
-------------------------------------|
-5-----------------------------------|
-2-------5---------------------------|
-3-------3--------2----------0-------|
------------------3----------2-------|


1:06
L
---------------------------------------------------------------|
-----------------------------------------------------------P---|
-----------------------------------------------------------H---|
-------------5-----------9-----------7----------4---------[5]~~|
-2-------**--3-------**--7-------**--5-----**---2---**---------|
-0-------00----------00----------00--5-----00---2---00---------|
R
---------------------------------------------------------------|
---------------------------------------------------------------|
---------------------------------------------------------------|
-------------5-----------9-----------7----------4-------P------|
-2-------**--3-------**--7-------**--5-----**---2---**--H------|
-0-------00----------00----------00--5-----00---2---00--3~~----|


L
------------------------------------------------------------------------|
----------------------------------------------_------------_------------|
--------/7~-------------/9~------------/9----/ \----/7----/ \-----------|
---4/5-------------4/5-------------4/5----7-5-7-5-4----5-4-5-4---4------|
-7---------------7---------------7-----------------------------5---5----|
------------------------------------------------------------------------|
R
------------------------------------------------------------------------|
----------------------------------------------_------------_------------|
---2/4--4~---------2/4--/5~--------2/4-/9----/ \----/7----/ \-----------|
-5---------------5---------------5--------7-5-7-5-4----5-4-5-4---4------|
---------------------------------------------------------------5---5----|
------------------------------------------------------------------------|
RYTHM
------------------------------------------------------------------------|
------------------------------------------------------------------------|
--------------------------4---------------2-----------------------------|
----------*-*--5----------2---------------0----------4----------5-------|
-2-------------3-------------------------------------2----------3-------|
-0--------0-0-----------------------------------------------------------|


1:29
BOTH
-----------------------------------------------------------------|
-----------------------------------------------------------------|
-4-------------------------------4-------------------------------|
---***-4-***-4-*-5-*-5-*-4-*-4-*---***-4-***-4-*-5-*-5-*-4-*-4-*-|
---777---777---7---7---7---7---7---777---777---7---7---7---7---7-|
-----------------------------------------------------------------|

-----------------------------------------------------------------------|
-----------------------------------------------------------------------|
-5-------------------------------4-------------------------------------|
---***-5-***-5-*-7-*-7-*-5-*-5-*-5-****-4-****-4-**-7-****-5-****-5-**-|
---999---999---9---9---9---9---9-5-5555-5-5555-5-55-3-3333-3-3333-3-33-|
-----------------------------------------------------------------------|

-----------------------------------------------------------------|
-----------------------------------------------------------------|
-4-------------------------------4-------------------------------|
---***-4-***-4-*-5-*-5-*-4-*-4-*---***-4-***-4-*-5-*-5-*-4-*-4-*-|
---777---777---7---7---7---7---7---777---777---7---7---7---7---7-|
-----------------------------------------------------------------|

------------------------------------------|
------------------------------------------|
-5---------------------------------0---4--|
---***-5-***-5-*-7-*-7-*-5-*-5-*-----4-5--|
---999---999---9---9---9---9---9-5-----3--|
------------------------------------------|

-----------------------------------------------------------------|
-----------------------------------------------------------------|
-4-------------------------------4-------------------------------|
---***-4-***-4-*-5-*-5-*-4-*-4-*---***-4-***-4-*-5-*-5-*-4-*-4-*-|
---777---777---7---7---7---7---7---777---777---7---7---7---7---7-|
-----------------------------------------------------------------|

------------------------------------------|
------------------------------------------|
-5---------------------------------0---4--|
---***-5-***-5-*-7-*-7-*-5-*-5-*-----4-5--|
---999---999---9---9---9---9---9-5-----3--|
------------------------------------------|



1:57
GT1
-----------------------------------------------------------------|
-----------------------------------------------------------------|
-4-------------------------------4-------------------------------|
---***-4-***-4-*-5-*-5-*-4-*-4-*---***-4-***-4-*-5-*-5-*-4-*-4-*-|
---777---777---7---7---7---7---7---777---777---7---7---7---7---7-|
-----------------------------------------------------------------|
GT2
-----------------------------------------------------------------|
-----------------------------------------------------------------|
-----------------------------------------------------------------|
-5-------------------------------5-------------------------------|
---***-5-***-5-*-7-*-7-*-5-*-5-*---***-5-***-5-*-7-*-7-*-5-*-5-*-|
---888---888---8---8---8---8---8---888---888---8---8---8---8---8-|

GT1
---------------------------------------------------------------|
---------------------------------------------------------------|
-5----------------------------------4--------------------------|
---***-5-***-5-*-7-*-7-*-5-*-5-*----5------4---4---7------5---5|
---999---999---9---9---9---9---9----5------5---5---3------3---3|
---------------------------------------------------------------|
GT2
---------------------------------------------------------------|
---------------------------------------------------------------|
------------------------------------4--------------------------|
-7----------------------------------5------4---4---7------5---5|
--*-*-*-7-*-*-*-7-*-9-*-9-*-7-*-7-*-5------5---5---3------3---3|
--101010-101010---10-10--10--10--10----------------------------|


2:07
L
-----------------------------------------------------------------|
-----------------------------------------------------------------|
--------------------------------------------------4|-------------|
-***-***-***--*-***-*-***-***-***--***-***-***--*---*-***-***-***|
-777-777-777--7-777-7-777-777-777--777-777-777--7---7-777-777-777|
-----------------------------------------------------------------|



L
------------------------------------------------------------------|
------------------------------------------------------------------|
--------------------------------------------------4|--------------|
-***-***-***--*-***-*-***-***-***--***-***-***--*----*-***-***-***|
-777-777-777--7-777-7-777-777-777--777-777-777--7----7-777-777-777|
------------------------------------------------------------------|
R
------------------------------------------------------------------|
------------------------------------------------------------------|
------------------------------------------------------------------|
-***-***-***--*-***-*-***-***-***--***-***-***--*-*--*-***-***-***|
-777-777-777--7-777-7-777-777-777--777-777-777--7-7--7-777-777-777|
------------------------------------------------------------------|



L
------------------------------------------------------------------|
------------------------------------------------------------------|
-***-***-***--*-***-*-***-***-***--***-***-***--*-*--*-***-***-***|
-555-555-555--5-555-5-555-555-555--444-444-444--4-4--4-444-444-444|
------------------------------------------------------------------|
------------------------------------------------------------------|
R
------------------------------------------------------------------|
------------------------------------------------------------------|
------------------------------------------------------------------|
-***-***-***--*-***-*-***-***-***--***-***-***--*-*--*-***-***-***|
-333-333-333--3-333-3-333-333-333--555-555-555--5-5--5-555-555-555|
------------------------------------------------------------------|

BOTH
------------------------------------------------------------------|
------------------------------------------------------------------|
------------------------------------------------------------------|
-***-***-***--*-***-*-***-***-***--***-***-***--*-*--*-***-***-***|
-777-777-777--7-777-7-777-777-777--777-777-777--7-7--7-777-777-777|
------------------------------------------------------------------|


L
------------------------------------------------------------------|
------------------------------------------------------------------|
-***-***-***--*-***-*-***-***-***--***-***-***--*-*--*-***--------|
-555-555-555--5-555-5-555-555-555--444-444-444--4-4--4-444--------|
-----------------------------------------------------------\------|
-----------------------------------------------------------\------|
R
------------------------------------------------------------------|
------------------------------------------------------------------|
------------------------------------------------------------------|
-***-***-***--*-***-*-***-***-***--***-***-***--*-*--*-***--------|
-333-333-333--3-333-3-333-333-333--555-555-555--5-5--5-555-\------|
-----------------------------------------------------------\------|


L
------------------------------------------------------------------|
------------------------------------------------------------------|
------------------------------------------------------------------|
-***-***-***--*-***-*-***-***-***--***-***-***--*-*--*-***-***-***|
-777-777-777--7-777-7-777-777-777--777-777-777--7-7--7-777-777-777|
------------------------------------------------------------------|
R
------------------------------------------------------------------|
------------------------------------------------------------------|
------------------------------------------------------------------|
------------------------------------------------------------------|
-***-***-***--*-***-*-***-***-***--***-***-***--*-*--*-***-***-***|
-000-000-000--0-000-0-000-000-000--000-000-000--0-0--0-000-000-000|


L
------------------------------------------------------------------|
------------------------------------------------------------------|
-***-***-***--*-***-*-***-***-***--***-***-***--*-*--*-***-***-***|
-555-555-555--5-555-5-555-555-555--444-444-444--4-4--4-444-444-444|
------------------------------------------------------------------|
------------------------------------------------------------------|
R
------------------------------------------------------------------|
------------------------------------------------------------------|
------------------------------------------------------------------|
-***-***-***--*-***-*-***-***-***--***-***-***--*-*--*-***-***-***|
-333-333-333--3-333-3-333-333-333--555-555-555--5-5--5-555-555-555|
------------------------------------------------------------------|


L
------------------------------------------------------------------|
------------------------------------------------------------------|
------------------------------------------------------------------|
-***-***-***--*-***-*-***-***-***--***-***-***--*-*--*-***-***-***|
-777-777-777--7-777-7-777-777-777--777-777-777--7-7--7-777-777-777|
------------------------------------------------------------------|
R
------------------------------------------------------------------|
------------------------------------------------------------------|
------------------------------------------------------------------|
------------------------------------------------------------------|
-***-***-***--*-***-*-***-***-***--***-***-***--*-*--*-***-***-***|
-000-000-000--0-000-0-000-000-000--000-000-000--0-0--0-000-000-000|


L
------------------------------------------------------------------|
------------------------------------------------------------------|
-***-***-***--*-***-*-***-***-***--***-***-***--*-*--*-***-***-***|
-555-555-555--5-555-5-555-555-555--444-444-444--4-4--4-444-444-444|
------------------------------------------------------------------|
------------------------------------------------------------------|
R
------------------------------------------------------------------|
------------------------------------------------------------------|
------------------------------------------------------------------|
-***-***-***--*-***-*-***-***-***--***-***-***--*-*--*-***-***-***|
-333-333-333--3-333-3-333-333-333--555-555-555--5-5--5-555-555-555|
------------------------------------------------------------------|


2:52
L
-----------------------------------|
-----------------***---------------|
---------***-***-777-***-***-***---|
-***-***-444-555-----555-444-555---|
-777-777---------------------------|
-----------------------------------|
R
-----------------------------------|
-----------------------------------|
-----------------------------------|
-----------------------------------|
-2---------------------------------|
-0-|-------------------------------|

|||||||||||||||||||||||||||||||||||||||||||||||||||||||||||


2:55
SOLO
------------------------------------------|
------------------------------------------|
------------------------------------------|
----------------------12------------------|
------------1212-14-15--15-14-12----------|
1212-1414-15--------------------15-14-15--|

2:56
--------------------------------------------|
--------------------------------------------|
--------------------------------------------|
--------------1212-14-16-17-16-14-12--------|
-1212-1414-15------------------------15-14--|
--------------------------------------------|

2:57
---------------------------------------__--------------__----------|
--------------------------------------/  \------------/  \---------|
----------------------------14------16-17-16--------16-17-16-----16|
----------------------12/14----16/19--------19-16-17--------19-17--|
-12----------12-14-15----------------------------------------------|
----15-14-15-------------------------------------------------------|

3:00
------------------------------------------------------------------|
------------------------------------------------------------------|
--------17-19-21--------17-19-21--------17-19-21--------17-19-21--|
17-19-21--------17-19-21--------17-19-21--------17-19-21----------|
------------------------------------------------------------------|
------------------------------------------------------------------|



3:02
-------------------------------|
-20---------20-----17----------|
/19---------19-----16----------|
-------------------------------|
-------------------------------|
-------------------------------|


3:04
   ^             ^             ^             ^             ^
-19-15------15-19-15------15-20-15------15-19-15------15-19-15------15|
------17--17--------17--17--------17--17--------17--17--------17--17--|
--------16------------16------------16------------16------------16----|
----------------------------------------------------------------------|
----------------------------------------------------------------------|
----------------------------------------------------------------------|

3:07
   ^             ^             ^             ^             ^
-20-15------15-19-15------15-18-14------14-17-14------14-17-14------14|
------17--17--------17--17--------17--17--------15--15--------15--15--|
--------16------------16------------16------------14------------14----|
----------------------------------------------------------------------|
----------------------------------------------------------------------|
----------------------------------------------------------------------|

3:10
   ^
-18-14-------14-17\------/22-20-19-17----------------------------|
------17--17--------------------------20-19----------------------|
--------16----------------------------------21-19-17-16----------|
--------------------------------------------------------19-16-17-|
-----------------------------------------------------------------|
-----------------------------------------------------------------|

------------------------------------------------|
------------------------------------------------|
-16-17-16-14------------------------------------|
-------------17-16------------------------------|
-------------------17-16-14-12------------------|
-------------------------------15-14-12-10-12~--|


-H-----------------------------|
-9--WHAMMY BAR PULLS-----------|
-------------------------------|
-------------------------------|
-------------------------------|
-------------------------------|

||||||||||||||||||||||||||||||||||||||||||||||||||

RYTHM DURING SOLO


L
---------------------------------------------------------------|
---------------------------------------------------------------|
--------------------------------------4--5--4--------4---------|
--------------------------------5--7-----------7--5-----7--4---|
---------------------------------------------------------------|
---------------------------------------------------------------|
R
---------------------------------------------------------------|
---------------------------------------------------------------|
----------------------------4----------------------------------|
----4--5--7--5--4-----4--5---------4--5--7--5--4-----5--4------|
-7-----------------7------------7-----------------7--------5---|
---------------------------------------------------------------|


GT1
-----------------------------------------------------------------|
-----------------------------------------------------------------|
-4-------------------------------4-------------------------------|
---***-4-***-4-*-5-*-5-*-4-*-4-*---***-4-***-4-*-5-*-5-*-4-*-4-*-|
---777---777---7---7---7---7---7---777---777---7---7---7---7---7-|
-----------------------------------------------------------------|
GT2
-----------------------------------------------------------------|
-----------------------------------------------------------------|
-----------------------------------------------------------------|
-5-------------------------------5-------------------------------|
---***-5-***-5-*-7-*-7-*-5-*-5-*---***-5-***-5-*-7-*-7-*-5-*-5-*-|
---888---888---8---8---8---8---8---888---888---8---8---8---8---8-|

GT1
---------------------------------------------------------------|
---------------------------------------------------------------|
-5----------------------------------4--------------------------|
---***-5-***-5-*-7-*-7-*-5-*-5-*----5------4---4---7------5---5|
---999---999---9---9---9---9---9----5------5---5---3------3---3|
---------------------------------------------------------------|
GT2
---------------------------------------------------------------|
---------------------------------------------------------------|
------------------------------------4--------------------------|
-7----------------------------------5------4---4---7------5---5|
--*-*-*-7-*-*-*-7-*-9-*-9-*-7-*-7-*-5------5---5---3------3---3|
--101010-101010---10-10--10--10--10----------------------------|


-----------------------------------|
-----------------***---------------|
---------***-***-777-***-***-***---|
-***-***-444-555-----555-444-555---|
-777-777---------------------------|
-----------------------------------|


-----------------------------|
-----------------------------|
-4---------4---------4-------|
-2---------2---------2-------|
---***-***---***-***---***---|
---000-000---000-000---000---|

|||||||||||||||||||||||||||||||||||||||||||||||||||

3:18
L
--------------------------------|
--------------------------------|
-9------7-----------------------|
---------------9-------P--------|
-----------------------H--------|
-----------------------3~~------|
R
--------------------------------|
--------------------------------|
--4-----2-----------------------|
--2-----4------4-------P--------|
---------------5-------H--------|
-----------------------3~~------|


L
---------------------------------------------------------------|
-----------------------------------------------------------P---|
-----------------------------------------------------------H---|
-------------5-----------9-----------7----------4---------[5]~~|
-2-------**--3-------**--7-------**--5-----**---2---**---------|
-0-------00----------00----------00--5-----00---2---00---------|
R
---------------------------------------------------------------|
---------------------------------------------------------------|
---------------------------------------------------------------|
-------------5-----------9-----------7----------4-------P------|
-2-------**--3-------**--7-------**--5-----**---2---**--H------|
-0-------00----------00----------00--5-----00---2---00--3~~----|



L
----------------------------------------------------------------------|
----------------------------------------------_------------_----------|
--------/7~-------------/9~------------/9----/ \----/7----/ \---------|
---4/5-------------4/5-------------4/5----7-5-7-5-4----5-4-5-4---4----|
-7---------------7---------------7-----------------------------5---5--|
----------------------------------------------------------------------|
R
----------------------------------------------------------------------|
----------------------------------------------_------------_----------|
---2/4--4~---------2/4--/5~--------2/4-/9----/ \----/7----/ \---------|
-5---------------5---------------5--------7-5-7-5-4----5-4-5-4---4----|
---------------------------------------------------------------5---5-2|
---------------------------------------------------------------------0|
RYTHM
----------------------------------------------------------------------|
----------------------------------------------------------------------|
--------------------------4---------------2---------------------------|
----------*-*--5----------2---------------0----------4----------5-----|
-2-------------3-------------------------------------2----------3----2|
-0--------0-0--------------------------------------------------------0|
Добавлено: 23.11.2013
Вам также может быть интересно:
Другие материалы по этой песне:

Страница создана 23.11.2013
http://primanota.ru/echoes-of-eternity/ten-of-swords-chords.htm
Привет, Гость.
Предлагаем пройти революционный курс по гитаре.
Подарок от PrimaNota.Ru, забирай!