PrimaNota.ru - самый крупный в мире бесплатный архив песенных текстов, аккордов, табулатур и нот


Echoes Of Eternity - Descent Of A Blackened Soul - таба, видео

Регистрация Запомнить меня
Войти через:  Facebook Google Twitter Vk Yandex Mail.ru

Echoes Of Eternity - Descent Of A Blackened Soul - таба, видео

Печатать
Просмотров: 81
Уроки эстрадного вокала в Санкт-Петербурге
ECHOES OF ETERNITY
DESCENT OF A BLACKENED SOUL
Eb-Ab-Db-Gb-Bb-Eb

*=PALM MUTE

tabbed by-andherembrace


L

0-----------------------------------------|
0-----------------------------------------|
4------------------------0----------------|
5------------------4-----------4----------|
--------------7----------------------5----|
------------------------------------------|
R
-------------------------------------------|
-------------------------------------------|
-------------------------------------------|
5--------------5-------4-------------4-----|
7--*-***-*-***-7-***---5-*-***-*-***-5-***-|
---0-000-0-000---000-----0-000-0-000---000-|


L
----------0----------0------------------------|
-0--------0-----------------3-----------------|
-0---0---------0--------------------4---------|
-2--------------------------------------------|
-3--------------------------------------------|
----------------------------------------------|
R
-----------------------------------------------|
-----------------------------------------------|
----*-***-*-***-*-***-*-***-*-***-*-***-*-***--|
-2---------------------------------------------|
-3--3-333-3-333-3-333-3-333-3-333-3-333-3-333--|
-----------------------------------------------|


L
0-----------------------------------------|
0-----------------------------------------|
4------------------------0----------------|
5------------------4-----------4----------|
--------------7----------------------5----|
------------------------------------------|
R
-------------------------------------------|
-------------------------------------------|
-------------------------------------------|
5--------------5-------4-------------4-----|
7--*-***-*-***-7-***---5-*-***-*-***-5-***-|
---0-000-0-000---000-----0-000-0-000---000-|


L
----------0----------0------------------------|
-0--------0-----------------3-----------------|
-0---0---------0--------------------4---------|
-2--------------------------------------------|
-3--------------------------------------------|
----------------------------------------------|
R
-----------------------------------------------|
-----------------------------------------------|
----*-***-*-***-*-***-*-***-*-***-*-***-*-***--|
-2---------------------------------------------|
-3--3-333-3-333-3-333-3-333-3-333-3-333-3-333--|
-----------------------------------------------|



0:17
------------------------------------------------------|
-*------*---------------------------------------------|
-4-*----4-*----*-*-*-*-*-*-*-*---*-*-*-*-*---*-*-*----|
---5-*----5-*--4-5-7-4-5-7-4-5-*-4-5-7-4-5-*-4-5-7----|
-----7------7------------------7-----------7-------7~-|
------------------------------------------------------|

L
----------------------------|
-*-*-------*-*-*------------|
-5-4-*-*-*-4-5-4-*-*-*------|
-----7-5-7-------7-5-4-*----|
-----------------------7----|
----------------------------|
R
-----------------------------|
-*-*---------*-*-*-----------|
-9-7--*-*--*-7-9-7--*-*-*----|
-----10-9-10-------10-9-7--*-|
--------------------------10-|
-----------------------------|

L
---------------------------------------------------------------|
-*------*------------------------------------------------------|
-7-*----7-*-----*-*--*-*-*--*-*-*----*-*--*-*-*----*-*--*------|
---9--*---9--*--7-9-10-7-9-10-7-9--*-7-9-10-7-9--*-7-9-10------|
-----10-----10--------------------10------------10--------10~--|
---------------------------------------------------------------|
R
------------------------------------------------------|
-*------*---------------------------------------------|
-4-*----4-*----*-*-*-*-*-*-*-*---*-*-*-*-*---*-*-*----|
---5-*----5-*--4-5-7-4-5-7-4-5-*-4-5-7-4-5-*-4-5-7----|
-----7------7------------------7-----------7-------7~-|
------------------------------------------------------|

L
---------------------------|
-*-*---------*-*-----------|
-5-4-*-*-*---5-4-*-*-*-----|
-----7-5-4-*-----7-5-4-*---|
-----------7-----------7---|
---------------------------|
R
-------------------------------|
-*-*-----------*-*-------------|
-9-7--*-*-*----9-7--*-*-*------|
-----10-9-7--*-----10-9-7--*---|
------------10------------10---|
-------------------------------|


L
0-----------------------------------------|
0-----------------------------------------|
4------------------------0----------------|
5------------------4-----------4----------|
--------------7----------------------5----|
------------------------------------------|
R
-------------------------------------------|
-------------------------------------------|
-------------------------------------------|
5--------------5-------4-------------4-----|
7--*-***-*-***-7-***---5-*-***-*-***-5-***-|
---0-000-0-000---000-----0-000-0-000---000-|



L
----------0----------0------------------------|
-0--------0-----------------3-----------------|
-0---0---------0--------------------4---------|
-2--------------------------------------------|
-3--------------------------------------------|
----------------------------------------------|
R
-----------------------------------------------|
-----------------------------------------------|
----*-***-*-***-*-***-*-***-*-***-*-***-*-***--|
-2---------------------------------------------|
-3--3-333-3-333-3-333-3-333-3-333-3-333-3-333--|
-----------------------------------------------|


L
0-----------------------------------------|
0-----------------------------------------|
4------------------------0----------------|
5------------------4-----------4----------|
--------------7----------------------5----|
------------------------------------------|
R
-------------------------------------------|
-------------------------------------------|
-------------------------------------------|
5--------------5-------4-------------4-----|
7--*-***-*-***-7-***---5-*-***-*-***-5-***-|
---0-000-0-000---000-----0-000-0-000---000-|


L
----------0----------0------------------------|
-0--------0-----------------3-----------------|
-0---0---------0--------------------4---------|
-2--------------------------------------------|
-3--------------------------------------------|
----------------------------------------------|
R
-----------------------------------------------|
-----------------------------------------------|
----*-***-*-***-*-***-*-***-*-***-*-***-*-***--|
-2---------------------------------------------|
-3--3-333-3-333-3-333-3-333-3-333-3-333-3-333--|
-----------------------------------------------|


0:48
L
-------------------------------------------|
-------------------------------------------|
-------------------------------------------|
5--------------5-------4-------------4-----|
7--*-***-*-***-7-***---5-*-***-*-***-5-***-|
---0-000-0-000---000-----0-000-0-000---000-|
R
-------------------------------------------|
-------------------------------------------|
-------------------------------------------|
5--------------5-------4-------------4-----|
7--*-***-*-***-7-***---5-*-***-*-***-5-***-|
---0-000-0-000---000-----0-000-0-000---000-|


L
----------0----------0------------------------|
-0--------0-----------------3-----------------|
-0---0---------0--------------------4---------|
-2--------------------------------------------|
-3--------------------------------------------|
----------------------------------------------|
R
-----------------------------------------------|
-----------------------------------------------|
----*-***-*-***-*-***-*-***-*-***-*-***-*-***--|
-2---------------------------------------------|
-3--3-333-3-333-3-333-3-333-3-333-3-333-3-333--|
-----------------------------------------------|


L
-------------------------------------------|
-------------------------------------------|
-------------------------------------------|
5--------------5-------4-------------4-----|
7--*-***-*-***-7-***---5-*-***-*-***-5-***-|
---0-000-0-000---000-----0-000-0-000---000-|
R
-------------------------------------------|
-------------------------------------------|
-------------------------------------------|
5--------------5-------4-------------4-----|
7--*-***-*-***-7-***---5-*-***-*-***-5-***-|
---0-000-0-000---000-----0-000-0-000---000-|


L
----------0----------0------------------------|
-0--------0-----------------3-----------------|
-0---0---------0--------------------4---------|
-2--------------------------------------------|
-3--------------------------------------------|
----------------------------------------------|
R
-----------------------------------------------|
-----------------------------------------------|
----*-***-*-***-*-***-*-***-*-***-*-***-*-***--|
-2---------------------------------------------|
-3--3-333-3-333-3-333-3-333-3-333-3-333-3-333--|
-----------------------------------------------|

1:04
L
------------------------------------------|
------------------------------------------|
9--*-***-*-***-9-***11--*-***-*-***11-***-|
X--------------X-----X--------------X-----|
7--------------7-----9--------------9-----|
---0-000-0-000---000----0-000-0-000---000-|
R
------------------------------------------|
------------------------------------------|
------------------------------------------|
5--------------5------4-------------4-----|
7--*-***-*-***-7-***--5-*-***-*-***-5-***-|
---0-000-0-000---000----0-000-0-000---000-|



L
-----------------------------------------------|
-----------------------------------------------|
-12-----12-----14----------16--17--16----------|
--X------X------X-----------X---X---X----------|
-10-----10-----12----------14--15--14--\-------|
---------------------------------------\-------|
R
-----------------------------------------------|
-----------------------------------------------|
----*-***-*-***-*-***-*-***-*-***-*-***-*-***--|
-2---------------------------------------------|
-3--3-333-3-333-3-333-3-333-3-333-3-333-3-333--|
-----------------------------------------------|

L
------------------------------------------|
------------------------------------------|
9--*-***-*-***-9-***11--*-***-*-***11-***-|
X--------------X-----X--------------X-----|
7--------------7-----9--------------9-----|
---0-000-0-000---000----0-000-0-000---000-|
R
------------------------------------------|
------------------------------------------|
------------------------------------------|
5--------------5------4-------------4-----|
7--*-***-*-***-7-***--5-*-***-*-***-5-***-|
---0-000-0-000---000----0-000-0-000---000-|

L
---------------------------------------------------------------|
---------------------------------------------------------------|
-12-------12------12--------------12---14-----14---14---14-----|
--X--------X-------X---------------X----X------X----X---X------|
-10-------10------10--------------10---12-----12---12---12-\---|
-----------------------------------------------------------\---|

---------------------------------------------------------------|
---------------------------------------------------------------|
---------------------------------------------------------------|
-5---------------------------------5--7------------------------|
-3---------------------------------3--5------------------------|
---------------------------------------------------------------|


1:23
L
---------------------------------------------------------------|
---------------------------------------------------------------|
---------------------------------------------------------------|
---------------------------------------------------------------|
---------------------------------------------------------------|
-0-------------------------------------------------------------|
R
----------------------------------------------------------------|
----------------------------------------------------------------|
-444444444444----------------------444444444444-----------------|
-----55554444--------------------------55554444-2222222244444444|
--------------********************--------------3333333355555555|
--------------00000000000000000000------------------------------|

L
---------------------------------------------------------------|
---------------------------------------------------------------|
-444444444444----------------------444444444444----------------|
-----55554444--------------------------5555444422222-33333-----|
--------------********************-------------33333-55555-----|
--------------00000000000000000000-----------------------------|
R
---------------------------------------------------------------|
---------------------------------------------------------------|
---------------------------------------------------------------|
-----------------------------------------------22222-33333-----|
---------------------------------------------\-33333-55555-----|
---------------------------------------------\-----------------|


L
----------------------------------------------------------------|
----------------------------------------------------------------|
-44444444--------------------------44444444---------------------|
-----55554444--------------------------55554444-2222222244444444|
---------5555-********************---------5555-3333333355555555|
--------------00000000000000000000------------------------------|
R
----------------------------------------------------------------|
----------------------------------------------------------------|
-444444444444----------------------444444444444-----------------|
-----55554444--------------------------55554444-2222222244444444|
--------------********************--------------3333333355555555|
--------------00000000000000000000------------------------------|

L
----------------------------------------------------------------|
----------------------------------------------------------------|
-44444444--------------------------44444444---------------------|
-----55554444--------------------------55554444-2222222244444444|
---------5555-********************---------5555-3333333355555555|
--------------00000000000000000000------------------------------|
R
----------------------------------------------------------------|
----------------------------------------------------------------|
-444444444444----------------------444444444444-----------------|
-----55554444--------------------------55554444-2222222244444444|
--------------********************--------------3333333355555555|
--------------00000000000000000000------------------------------|


L
----------------------------------------------------------------|
----------------------------------------------------------------|
-444444444444----------------------444444444444-9------11-------|
-----55554444--------------------------55554444-X-------X-------|
--------------*-*-*-*-*-*-2-****-*--------------7-------9-------|
--------------0-0-0-0-0-0-0-0000-0------------------------------|
R
----------------------------------------------------------------|
----------------------------------------------------------------|
-44444444--------------------------44444444---------------------|
-----55554444--------------------------55554444-2222222244444444|
---------5555-*-*-*-*-*-*-2-****-*---------5555-3333333355555555|
--------------0-0-0-0-0-0-0-0000-0------------------------------|


L
----------------------------------------------------------------|
----------------------------------------------------------------|
-444444444444----------------------444444444444-9------11-------|
-----55554444--------------------------55554444-X-------X-------|
--------------*-*-*-*-*-*-2-****-*--------------7-------9-------|
--------------0-0-0-0-0-0-0-0000-0------------------------------|
R
----------------------------------------------------------------|
----------------------------------------------------------------|
-44444444--------------------------44444444---------------------|
-----55554444--------------------------55554444-2222222244444444|
---------5555-*-*-*-*-*-*-2-****-*---------5555-3333333355555555|
--------------0-0-0-0-0-0-0-0000-0------------------------------|


1:56
R
---------------------------------------------------------------|
-*------*------------------------------------------------------|
-7-*----7-*-----*-*--*-*-*--*-*-*----*-*--*-*-*----*-*--*------|
---9--*---9--*--7-9-10-7-9-10-7-9--*-7-9-10-7-9--*-7-9-10------|
-----10-----10--------------------10------------10--------10~--|
---------------------------------------------------------------|
L
------------------------------------------------------|
-*------*---------------------------------------------|
-4-*----4-*----*-*-*-*-*-*-*-*---*-*-*-*-*---*-*-*----|
---5-*----5-*--4-5-7-4-5-7-4-5-*-4-5-7-4-5-*-4-5-7----|
-----7------7------------------7-----------7-------7~-|
------------------------------------------------------|

R
---------------------------|
-*-*---------*-*-----------|
-5-4-*-*-*---5-4-*-*-*-----|
-----7-5-4-*-----7-5-4-*---|
-----------7-----------7---|
---------------------------|
L
-------------------------------|
-*-*-----------*-*-------------|
-9-7--*-*-*----9-7--*-*-*------|
-----10-9-7--*-----10-9-7--*---|
------------10------------10---|
-------------------------------|



L
-------------------------------------------|
-------------------------------------------|
-------------------------------------------|
5--------------5-------4-------------4-----|
7--*-***-*-***-7-***---5-*-***-*-***-5-***-|
---0-000-0-000---000-----0-000-0-000---000-|
R
-------------------------------------------|
-------------------------------------------|
-------------------------------------------|
5--------------5-------4-------------4-----|
7--*-***-*-***-7-***---5-*-***-*-***-5-***-|
---0-000-0-000---000-----0-000-0-000---000-|


L
----------0----------0------------------------|
-0--------0-----------------3-----------------|
-0---0---------0--------------------4---------|
-2--------------------------------------------|
-3--------------------------------------------|
----------------------------------------------|
R
-----------------------------------------------|
-----------------------------------------------|
----*-***-*-***-*-***-*-***-*-***-*-***-*-***--|
-2---------------------------------------------|
-3--3-333-3-333-3-333-3-333-3-333-3-333-3-333--|
-----------------------------------------------|


L
-------------------------------------------|
-------------------------------------------|
-------------------------------------------|
5--------------5-------4-------------4-----|
7--*-***-*-***-7-***---5-*-***-*-***-5-***-|
---0-000-0-000---000-----0-000-0-000---000-|
R
-------------------------------------------|
-------------------------------------------|
-------------------------------------------|
5--------------5-------4-------------4-----|
7--*-***-*-***-7-***---5-*-***-*-***-5-***-|
---0-000-0-000---000-----0-000-0-000---000-|


L
----------0----------0------------------------|
-0--------0-----------------3-----------------|
-0---0---------0--------------------4---------|
-2--------------------------------------------|
-3--------------------------------------------|
----------------------------------------------|
R
-----------------------------------------------|
-----------------------------------------------|
-----------------------------------------------|
-2---------------------------------------------|
-3---------------------------------------------|
-----------------------------------------------|

L
-------------------------------------------|
-------------------------------------------|
-------------------------------------------|
5--------------5-------4-------------4-----|
7--*-***-*-***-7-***---5-*-***-*-***-5-***-|
---0-000-0-000---000-----0-000-0-000---000-|
R
-------------------------------------------|
-------------------------------------------|
-------------------------------------------|
5--------------5-------4-------------4-----|
7--*-***-*-***-7-***---5-*-***-*-***-5-***-|
---0-000-0-000---000-----0-000-0-000---000-|


L
----------0---------0-------------------------|
-0--------0-----------------3-----------------|
-0---0---------0--------------------4---------|
-2--------------------------------------------|
-3--------------------------------------------|
----------------------------------------------|
R
-----------------------------------------------|
-----------------------------------------------|
----*-***-*-***-*-***-*-***-*-***-*-***-*-***--|
-2---------------------------------------------|
-3--3-333-3-333-3-333-3-333-3-333-3-333-3-333--|
-----------------------------------------------|

L
-------------------------------------------|
-------------------------------------------|
-------------------------------------------|
5--------------5-------4-------------4-----|
7--*-***-*-***-7-***---5-*-***-*-***-5-***-|
---0-000-0-000---000-----0-000-0-000---000-|
R
-------------------------------------------|
-------------------------------------------|
-------------------------------------------|
5--------------5-------4-------------4-----|
7--*-***-*-***-7-***---5-*-***-*-***-5-***-|
---0-000-0-000---000-----0-000-0-000---000-|


L
----------0----------0------------------------|
-0--------0-----------------3-----------------|
-0---0---------0--------------------4---------|
-2--------------------------------------------|
-3--------------------------------------------|
----------------------------------------------|
R
-----------------------------------------------|
-----------------------------------------------|
----*-***-*-***-*-***-*-***-*-***-*-***-*-***--|
-2---------------------------------------------|
-3--3-333-3-333-3-333-3-333-3-333-3-333-3-333--|
-----------------------------------------------|


L
------------------------------------------|
------------------------------------------|
9--*-***-*-***-9-***11--*-***-*-***11-***-|
X--------------X-----X--------------X-----|
7--------------7-----9--------------9-----|
---0-000-0-000---000----0-000-0-000---000-|
R
------------------------------------------|
------------------------------------------|
------------------------------------------|
5--------------5------4-------------4-----|
7--*-***-*-***-7-***--5-*-***-*-***-5-***-|
---0-000-0-000---000----0-000-0-000---000-|



L
-----------------------------------------------|
-----------------------------------------------|
-12-----12-----14----------16--17--16----------|
--X------X------X-----------X---X---X----------|
-10-----10-----12----------14--15--14--\-------|
---------------------------------------\-------|
R
-----------------------------------------------|
-----------------------------------------------|
----*-***-*-***-*-***-*-***-*-***-*-***-*-***--|
-2---------------------------------------------|
-3--3-333-3-333-3-333-3-333-3-333-3-333-3-333--|
-----------------------------------------------|

L
------------------------------------------|
------------------------------------------|
9--*-***-*-***-9-***11--*-***-*-***11-***-|
X--------------X-----X--------------X-----|
7--------------7-----9--------------9-----|
---0-000-0-000---000----0-000-0-000---000-|
R
------------------------------------------|
------------------------------------------|
------------------------------------------|
5--------------5------4-------------4-----|
7--*-***-*-***-7-***--5-*-***-*-***-5-***-|
---0-000-0-000---000----0-000-0-000---000-|

L
---------------------------------------------------------------|
---------------------------------------------------------------|
-12-------12------12--------------12---14-----14---14---14-----|
--X--------X-------X---------------X----X------X----X---X------|
-10-------10------10--------------10---12-----12---12---12-\---|
-----------------------------------------------------------\---|

---------------------------------------------------------------|
---------------------------------------------------------------|
---------------------------------------------------------------|
-5---------------------------------5--7------------------------|
-3---------------------------------3--5------------------------|
---------------------------------------------------------------|


3:02
L
---------------------------------------------------------------|
---------------------------------------------------------------|
---------------------------------------------------------------|
---------------------------------------------------------------|
---------------------------------------------------------------|
-0-------------------------------------------------------------|
R
----------------------------------------------------------------|
----------------------------------------------------------------|
-444444444444----------------------444444444444-----------------|
-----55554444--------------------------55554444-2222222244444444|
--------------********************--------------3333333355555555|
--------------00000000000000000000------------------------------|

L
---------------------------------------------------------------|
---------------------------------------------------------------|
-444444444444----------------------444444444444----------------|
-----55554444--------------------------5555444422222-33333-----|
--------------********************-------------33333-55555-----|
--------------00000000000000000000-----------------------------|
R
---------------------------------------------------------------|
---------------------------------------------------------------|
---------------------------------------------------------------|
-----------------------------------------------22222-33333-----|
---------------------------------------------\-33333-55555-----|
---------------------------------------------\-----------------|


L
----------------------------------------------------------------|
----------------------------------------------------------------|
-44444444--------------------------44444444---------------------|
-----55554444--------------------------55554444-2222222244444444|
---------5555-********************---------5555-3333333355555555|
--------------00000000000000000000------------------------------|
R
----------------------------------------------------------------|
----------------------------------------------------------------|
-444444444444----------------------444444444444-----------------|
-----55554444--------------------------55554444-2222222244444444|
--------------********************--------------3333333355555555|
--------------00000000000000000000------------------------------|

L
----------------------------------------------------------------|
----------------------------------------------------------------|
-44444444--------------------------44444444---------------------|
-----55554444--------------------------55554444-2222222244444444|
---------5555-********************---------5555-3333333355555555|
--------------00000000000000000000------------------------------|
R
----------------------------------------------------------------|
----------------------------------------------------------------|
-444444444444----------------------444444444444-----------------|
-----55554444--------------------------55554444-2222222244444444|
--------------********************--------------3333333355555555|
--------------00000000000000000000------------------------------|


L
----------------------------------------------------------------|
----------------------------------------------------------------|
-444444444444----------------------444444444444-9------11-------|
-----55554444--------------------------55554444-X-------X-------|
--------------*-*-*-*-*-*-2-****-*--------------7-------9-------|
--------------0-0-0-0-0-0-0-0000-0------------------------------|
R
----------------------------------------------------------------|
----------------------------------------------------------------|
-44444444--------------------------44444444---------------------|
-----55554444--------------------------55554444-2222222244444444|
---------5555-*-*-*-*-*-*-2-****-*---------5555-3333333355555555|
--------------0-0-0-0-0-0-0-0000-0------------------------------|


L
----------------------------------------------------------------|
----------------------------------------------------------------|
-444444444444----------------------444444444444-9------11-------|
-----55554444--------------------------55554444-X-------X-------|
--------------*-*-*-*-*-*-2-****-*--------------7-------9-------|
--------------0-0-0-0-0-0-0-0000-0------------------------------|
R
----------------------------------------------------------------|
----------------------------------------------------------------|
-44444444--------------------------44444444---------------------|
-----55554444--------------------------55554444-2222222244444444|
---------5555-*-*-*-*-*-*-2-****-*---------5555-3333333355555555|
--------------0-0-0-0-0-0-0-0000-0------------------------------|



3:35
CLEAN
-------3-----2-----------------------------------0-------|
----------0----0----------/7-0--------3-0----------3-0---|
-----0----------------0-------------0----------0---------|
---4----------------4-------------4----------4-----------|
-7----------------5-------------3----------3-------------|
---------------------------------------------------------|

-------3-----2-----------------------------------0-------|
----------0----0----------/7-0--------3-0----------3-0---|
-----0----------------0-------------0----------0---------|
---4----------------4-------------4----------4-----------|
-7----------------5-------------3----------3-------------|
---------------------------------------------------------|

-------3-----2-----------------------------------0-------|
----------0----0----------/7-0--------3-0----------3-0---|
-----0----------------0-------------0----------0---------|
---4----------------4-------------4----------4-----------|
-7----------------5-------------3----------3-------------|
---------------------------------------------------------|

-------3-----2-----------------------------------0-------|
----------0----0----------/7-0--------3-0----------3-0---|
-----0----------------0-------------0----------0---------|
---4----------------4-------------4----------4-----------|
-7----------------5-------------3----------3-------------|
---------------------------------------------------------|

-------3-----2-----------------------------------0-------|
----------0----0----------/7-0--------3-0----------3-0---|
-----0----------------0-------------0----------0---------|
---4----------------4-------------4----------4-----------|
-7----------------5-------------3----------3-------------|
---------------------------------------------------------|

-------3-----2-----------------------------------0-------|
----------0----0----------/7-0--------3-0----------3-0---|
-----0----------------0-------------0----------0---------|
---4----------------4-------------4----------4-----------|
-7----------------5-------------3----------3-------------|
---------------------------------------------------------|


DIST
 * * *    *       * * *         * * *      * * *         
-------3-----2-----------------------------------0-------|
----------0----0----------/7-0--------3-0----------3-0---|
-----0----------------0-------------0----------0---------|
---4----------------4-------------4----------4-----------|
-7----------------5-------------3----------3-------------|
---------------------------------------------------------|
R
---------------------------------------------------------|
---------------------------------------------------------|
-9----------------7-------------5-----------5----------7-|
-9----------------7-------------5-----------5----------7-|
-7----------------5-------------3-----------3----------5-|
---------------------------------------------------------|

* * *    *       * * *         * * *      * * *         
-------3-----2-----------------------------------0-------|
----------0----0----------/7-0--------3-0----------3-0---|
-----0----------------0-------------0----------0---------|
---4----------------4-------------4----------4-----------|
-7----------------5-------------3----------3-------------|
---------------------------------------------------------|
R
---------------------------------------------------------|
---------------------------------------------------------|
-9----------------7-------------5-----------5----------7-|
-9----------------7-------------5-----------5----------7-|
-7----------------5-------------3-----------3----------5-|
---------------------------------------------------------|

* * *    *       * * *         * * *      * * *         
-------3-----2-----------------------------------0-------|
----------0----0----------/7-0--------3-0----------3-0---|
-----0----------------0-------------0----------0---------|
---4----------------4-------------4----------4-----------|
-7----------------5-------------3----------3-------------|
---------------------------------------------------------|
R
---------------------------------------------------------|
---------------------------------------------------------|
-9----------------7-------------5-----------5----------7-|
-9----------------7-------------5-----------5----------7-|
-7----------------5-------------3-----------3----------5-|
---------------------------------------------------------|

* * *    *       * * *         * * *      * * *         
-------3-----2-----------------------------------0-------|
----------0----0----------/7-0--------3-0----------3-0---|
-----0----------------0-------------0----------0---------|
---4----------------4-------------4----------4-----------|
-7----------------5-------------3----------3-------------|
---------------------------------------------------------|
R
---------------------------------------------------------|
---------------------------------------------------------|
-9----------------7-------------5-----------5----------7-|
-9----------------7-------------5-----------5----------7-|
-7----------------5-------------3-----------3----------5-|
---------------------------------------------------------|

SOLO
---14--15-----17--14------------------------------|
-----------------------15---17----17---15--15-----|
--------------------------------------------------|
----------------------------------------------17--|
--------------------------------------------------|
--------------------------------------------------|
R
--------------------------------------------------|
--------------------------------------------------|
-9------------11-------12--------14---12---11--7--|
-X-------------X-------X----------X----X---X---X--|
-7-------------9-------10-------/12---10---9---5--|
--------------------------------------------------|


---------------------------------------------------|
---------------------------------------------------|
---------^----16~~----------------12-----11-11-----|
-16~---16-17-------12--14~~------------------------|
---------------------------------------------------|
---------------------------------------------------|
R
--------------------------------------------------|
--------------------------------------------------|
-9------------11-------12--------14---12---11--7--|
-X-------------X-------X----------X----X---X---X--|
-7-------------9-------10-------/12---10---9---5--|
--------------------------------------------------|

---14--15-----17--14------------------------------|
-----------------------15---17----17---15--15-----|
--------------------------------------------------|
----------------------------------------------17--|
--------------------------------------------------|
--------------------------------------------------|
R
--------------------------------------------------|
--------------------------------------------------|
-9------------11-------12--------14---12---11--7--|
-X-------------X-------X----------X----X---X---X--|
-7-------------9-------10-------/12---10---9---5--|
--------------------------------------------------|


------------------------------------------------------|
------------------------------------------------------|
---------^----16~~----------------12-----11-11--------|
-16~---16-17-------12--14~~--------------------12-14--|
------------------------------------------------------|
------------------------------------------------------|
R
--------------------------------------------------|
--------------------------------------------------|
-9------------11-------12--------14---12---11--7--|
-X-------------X-------X----------X----X---X---X--|
-7-------------9-------10-------/12---10---9---5--|
--------------------------------------------------|
Добавлено: 30.07.2013
Другие материалы по этой песне:
  • Аккорды и текст

Страница создана 30.07.2013
http://primanota.ru/echoes-of-eternity/descent-of-a-blackened-soul-chords.htm
Привет, Гость.
Предлагаем пройти революционный курс по гитаре.
Подарок от PrimaNota.Ru, забирай!