PrimaNota.ru - самый крупный в мире бесплатный архив песенных текстов, аккордов, табулатур и нот


Echobrain - Keep Me Alive - аккорды и текст, таба, видео

Регистрация Запомнить меня
Войти через:  Facebook Google Twitter Vk Yandex Mail.ru

Echobrain - Keep Me Alive - аккорды и текст, таба, видео

Печатать
Просмотров: 97
Авторы: EchoBrain

Keep Me Alive
Echobrain
Author/Artist: 	Echobrain
Title: 		Keep Me Alive
Album: 		Echobrain
Transcribed by: Adam Dabin
Email: 		adamdabin@hotmail.com

Tuning: Standard
Notes:   Listen to the CD for strumming and timing

 E                         G
-0--0--x-x-x-x-0-0-0-x-0--0--x-x-x-x-0-0-0-x-3--3--x-x-x-x-3-3-3-x-3--3-|
-0--0--x-x-x-x-0-0-0-x-0--0--x-x-x-x-0-0-0-x-3--3--x-x-x-x-3-3-3-x-3--3-|
-1--1--x-x-x-x-1-1-1-x-1--1--x-x-x-x-1-1-1-x-4--4--x-x-x-x-4-4-4-x-4--4-|
-2--2--x-x-x-x-2-2-2-x-2--2--x-x-x-x-2-2-2-x-5--5--x-x-x-x-5-5-5-x-5--5-|
-2--2--x-x-x-x-2-2-2-x-2--2--x-x-x-x-2-2-2-x-5--5--x-x-x-x-5-5-5-x-5--5-|
-0--0--x-x-x-x-0-0-0-x-0--0--x-x-x-x-0-0-0-x-3--3--x-x-x-x-3-3-3-x-3--3-|
 Clear        the  clouds            in  my  head                    
         
                 A# 
-x-x-x-x-3-3-3-x-6--6--x-x-x-x-6-6-6-x-6--6--x-x-x-x-6-6-6-x-|
-x-x-x-x-3-3-3-x-6--6--x-x-x-x-6-6-6-x-6--6--x-x-x-x-6-6-6-x-|
-x-x-x-x-4-4-4-x-7--7--x-x-x-x-7-7-7-x-7--7--x-x-x-x-7-7-7-x-|
-x-x-x-x-5-5-5-x-8--8--x-x-x-x-8-8-8-x-8--8--x-x-x-x-8-8-8-x-|
-x-x-x-x-5-5-5-x-8--8--x-x-x-x-8-8-8-x-8--8--x-x-x-x-8-8-8-x-|
-x-x-x-x-3-3-3-x-6--6--x-x-x-x-6-6-6-x-6--6--x-x-x-x-6-6-6-x-|
                 smog     I    find               brings             

 G     A#    C     A#
-3-3-----------------|
-3-3-----------------|
-4-4-x-3-3-3/5-5-53-|
-5-5-x-3-3-3/5-5-53-|
-5-5-x-1-1-1/3-3-31-|
-3-3-x---------------|
 dread                                    

 E                         G
-0--0--x-x-x-x-0-0-0-x-0--0--x-x-x-x-0-0-0-x-3--3--x-x-x-x-3-3-3-x-3--3-|
-0--0--x-x-x-x-0-0-0-x-0--0--x-x-x-x-0-0-0-x-3--3--x-x-x-x-3-3-3-x-3--3-|
-1--1--x-x-x-x-1-1-1-x-1--1--x-x-x-x-1-1-1-x-4--4--x-x-x-x-4-4-4-x-4--4-|
-2--2--x-x-x-x-2-2-2-x-2--2--x-x-x-x-2-2-2-x-5--5--x-x-x-x-5-5-5-x-5--5-|
-2--2--x-x-x-x-2-2-2-x-2--2--x-x-x-x-2-2-2-x-5--5--x-x-x-x-5-5-5-x-5--5-|
-0--0--x-x-x-x-0-0-0-x-0--0--x-x-x-x-0-0-0-x-3--3--x-x-x-x-3-3-3-x-3--3-|
               on this   tree        I     see
                       
                 A# 
-x-x-x-x-3-3-3-x-6--6--x-x-x-x-6-6-6-x-6--6--x-x-x-x-6-6-6-x-|
-x-x-x-x-3-3-3-x-6--6--x-x-x-x-6-6-6-x-6--6--x-x-x-x-6-6-6-x-|
-x-x-x-x-4-4-4-x-7--7--x-x-x-x-7-7-7-x-7--7--x-x-x-x-7-7-7-x-|
-x-x-x-x-5-5-5-x-8--8--x-x-x-x-8-8-8-x-8--8--x-x-x-x-8-8-8-x-|
-x-x-x-x-5-5-5-x-8--8--x-x-x-x-8-8-8-x-8--8--x-x-x-x-8-8-8-x-|
-x-x-x-x-3-3-3-x-6--6--x-x-x-x-6-6-6-x-6--6--x-x-x-x-6-6-6-x-|
               way behind    the    refuge             fall
          
 G     A#    C     A#
-3-3-----------------|
-3-3-----------------|
-4-4-x-3-3-3/5-5-53-|
-5-5-x-3-3-3/5-5-53-|
-5-5-x-1-1-1/3-3-31-|
-3-3-x---------------|
 out                                      

 E                         G
-0--0--x-x-x-x-0-0-0-x-0--0--x-x-x-x-0-0-0-x-3--3--x-x-x-x-3-3-3-x-3--3-|
-0--0--x-x-x-x-0-0-0-x-0--0--x-x-x-x-0-0-0-x-3--3--x-x-x-x-3-3-3-x-3--3-|
-1--1--x-x-x-x-1-1-1-x-1--1--x-x-x-x-1-1-1-x-4--4--x-x-x-x-4-4-4-x-4--4-|
-2--2--x-x-x-x-2-2-2-x-2--2--x-x-x-x-2-2-2-x-5--5--x-x-x-x-5-5-5-x-5--5-|
-2--2--x-x-x-x-2-2-2-x-2--2--x-x-x-x-2-2-2-x-5--5--x-x-x-x-5-5-5-x-5--5-|
-0--0--x-x-x-x-0-0-0-x-0--0--x-x-x-x-0-0-0-x-3--3--x-x-x-x-3-3-3-x-3--3-|
               Is it   distant    or      never
                      
                 A#                         F E F# E
-x-x-x-x-3-3-3-x-6--6--x-x-x-x-6-6-6-x-6--6--x-x-x-x---------|
-x-x-x-x-3-3-3-x-6--6--x-x-x-x-6-6-6-x-6--6--x-x-x-x---------|
-x-x-x-x-4-4-4-x-7--7--x-x-x-x-7-7-7-x-7--7--x-x-x-x---------|
-x-x-x-x-5-5-5-x-8--8--x-x-x-x-8-8-8-x-8--8--x-x-x-x-3---4---|
-x-x-x-x-5-5-5-x-8--8--x-x-x-x-8-8-8-x-8--8--x-x-x-x-3---4---|
-x-x-x-x-3-3-3-x-6--6--x-x-x-x-6-6-6-x-6--6--x-x-x-x-1p0-2p0-|
                could  you spare the time           to keep me
                
 G     A#    C     A#  G     A#    C     A#  G     A#    C     A#
-3-3-----------------|-3-3-----------------|-3-3-----------------|
-3-3-----------------|-3-3-----------------|-3-3-----------------|
-4-4-x-3-3-3/5-5-53-|-4-4-x-3-3-3/5-5-53-|-4-4-x-3-3-3/5-5-53-|
-5-5-x-3-3-3/5-5-53-|-5-5-x-3-3-3/5-5-53-|-5-5-x-3-3-3/5-5-53-|
-5-5-x-1-1-1/3-3-31-|-5-5-x-1-1-1/3-3-31-|-5-5-x-1-1-1/3-3-31-|
-3-3-x---------------|-3-3-x---------------|-3-3-x---------------|
 alive
                                    
 G     A#    C     A#  G     A#    C     A#  G     A#    C     A#
-3-3-----------------|-3-3-----------------|-3-3-----------------|
-3-3-----------------|-3-3-----------------|-3-3-----------------|
-4-4-x-3-3-3/5-5-53-|-4-4-x-3-3-3/5-5-53-|-4-4-x-3-3-3/5-5-53-|
-5-5-x-3-3-3/5-5-53-|-5-5-x-3-3-3/5-5-53-|-5-5-x-3-3-3/5-5-53-|
-5-5-x-1-1-1/3-3-31-|-5-5-x-1-1-1/3-3-31-|-5-5-x-1-1-1/3-3-31-|
-3-3-x---------------|-3-3-x---------------|-3-3-x---------------|
                                          
 G     A#    C     A#  G     A#    C     A#  G     A#    C     A#
-3-3-----------------|-3-3-----------------|-3-3-----------------|
-3-3-----------------|-3-3-----------------|-3-3-----------------|
-4-4-x-3-3-3/5-5-53-|-4-4-x-3-3-3/5-5-53-|-4-4-x-3-3-3/5-5-53-|
-5-5-x-3-3-3/5-5-53-|-5-5-x-3-3-3/5-5-53-|-5-5-x-3-3-3/5-5-53-|
-5-5-x-1-1-1/3-3-31-|-5-5-x-1-1-1/3-3-31-|-5-5-x-1-1-1/3-3-31-|
-3-3-x---------------|-3-3-x---------------|-3-3-x---------------|
                                          
 G     A#    C     A#  G     A#    C     A#  G     A#    C     A#
-3-3-----------------|-3-3-----------------|-3-3-----------------|
-3-3-----------------|-3-3-----------------|-3-3-----------------|
-4-4-x-3-3-3/5-5-53-|-4-4-x-3-3-3/5-5-53-|-4-4-x-3-3-3/5-5-53-|
-5-5-x-3-3-3/5-5-53-|-5-5-x-3-3-3/5-5-53-|-5-5-x-3-3-3/5-5-53-|
-5-5-x-1-1-1/3-3-31-|-5-5-x-1-1-1/3-3-31-|-5-5-x-1-1-1/3-3-31-|
-3-3-x---------------|-3-3-x---------------|-3-3-x---------------|
                                          
 Gm           A#           F
-3--3-3--3--3-3--3-3-|-1--1-1--1--1-1--1-1-|-1--1-1--1--1-1--1-1-|
-3--3-3--3--3-3--3-3-|-3--3-3--3--3-3--3-3-|-1--1-1--1--1-1--1-1-|
-3--3-3--3--3-3--3-3-|-3--3-3--3--3-3--3-3-|-2--2-2--2--2-2--2-2-|
-5--5-5--5--5-5--5-5-|-3--3-3--3--3-3--3-3-|-3--3-3--3--3-3--3-3-|
-5--5-5--5--5-5--5-5-|-1--1-1--1--1-1--1-1-|-3--3-3--3--3-3--3-3-|
-3--3-3--3--3-3--3-3-|---------------------|-1--1-1--1--1-1--1-1-|
         Living                Breathing             Bungry
          
 F            Gm           A#
-1--1-1--1--1-1--1-1-|-3--3-3--3--3-3--3-3-|-1--1-1--1--1-1--1-1-|
-1--1-1--1--1-1--1-1-|-3--3-3--3--3-3--3-3-|-3--3-3--3--3-3--3-3-|
-2--2-2--2--2-2--2-2-|-3--3-3--3--3-3--3-3-|-3--3-3--3--3-3--3-3-|
-3--3-3--3--3-3--3-3-|-5--5-5--5--5-5--5-5-|-3--3-3--3--3-3--3-3-|
-3--3-3--3--3-3--3-3-|-5--5-5--5--5-5--5-5-|-1--1-1--1--1-1--1-1-|
-1--1-1--1--1-1--1-1-|-3--3-3--3--3-3--3-3-|---------------------|
         Drone Days            Sold Out               Fold Out
                
 F            F            Gm
-1--1-1--1--1-1--1-1-|-1--1-1--1--1-1--1-1-|-3--3-3--3--3-3--3-3-|
-1--1-1--1--1-1--1-1-|-1--1-1--1--1-1--1-1-|-3--3-3--3--3-3--3-3-|
-2--2-2--2--2-2--2-2-|-2--2-2--2--2-2--2-2-|-3--3-3--3--3-3--3-3-|
-3--3-3--3--3-3--3-3-|-3--3-3--3--3-3--3-3-|-5--5-5--5--5-5--5-5-|
-3--3-3--3--3-3--3-3-|-3--3-3--3--3-3--3-3-|-5--5-5--5--5-5--5-5-|
-1--1-1--1--1-1--1-1-|-1--1-1--1--1-1--1-1-|-3--3-3--3--3-3--3-3-|
         Breakdown                          mishap
          
 A#           F            Cm
-1--1-1--1--1-1--1-1-|-1--1-1--1--1-1--1-1-|-3--3-3--3--3-3--3-3-|
-3--3-3--3--3-3--3-3-|-1--1-1--1--1-1--1-1-|-4--4-4--4--4-4--4-4-|
-3--3-3--3--3-3--3-3-|-2--2-2--2--2-2--2-2-|-5--5-5--5--5-5--5-5-|
-3--3-3--3--3-3--3-3-|-3--3-3--3--3-3--3-3-|-5--5-5--5--5-5--5-5-|
-1--1-1--1--1-1--1-1-|-3--3-3--3--3-3--3-3-|-3--3-3--3--3-3--3-3-|
---------------------|-1--1-1--1--1-1--1-1-|---------------------|
         Creeping              Always                Cheeting
                 
 Gm           A#           F
-3--3-3--3--3-3--3-3-|-1--1-1--1--1-1--1-1-|-1--1-1--1--1-1--1-1-|
-3--3-3--3--3-3--3-3-|-3--3-3--3--3-3--3-3-|-1--1-1--1--1-1--1-1-|
-3--3-3--3--3-3--3-3-|-3--3-3--3--3-3--3-3-|-2--2-2--2--2-2--2-2-|
-5--5-5--5--5-5--5-5-|-3--3-3--3--3-3--3-3-|-3--3-3--3--3-3--3-3-|
-5--5-5--5--5-5--5-5-|-1--1-1--1--1-1--1-1-|-3--3-3--3--3-3--3-3-|
-3--3-3--3--3-3--3-3-|---------------------|-1--1-1--1--1-1--1-1-|
         Fake out              Found Out             Bandout
         
 F            Gm           A#
-1--1-1--1--1-1--1-1-|-3--3-3--3--3-3--3-3-|-1--1-1--1--1-1--1-1-|
-1--1-1--1--1-1--1-1-|-3--3-3--3--3-3--3-3-|-3--3-3--3--3-3--3-3-|
-2--2-2--2--2-2--2-2-|-3--3-3--3--3-3--3-3-|-3--3-3--3--3-3--3-3-|
-3--3-3--3--3-3--3-3-|-5--5-5--5--5-5--5-5-|-3--3-3--3--3-3--3-3-|
-3--3-3--3--3-3--3-3-|-5--5-5--5--5-5--5-5-|-1--1-1--1--1-1--1-1-|
-1--1-1--1--1-1--1-1-|-3--3-3--3--3-3--3-3-|---------------------|
         Freakout              So fierce             You  Feel
                
 F            Cm           Gm
-1--1-1--1--1-1--1-1-|-3--3-3--3--3-3--3-3-|-3--3-3--3--3-3--3-3-|
-1--1-1--1--1-1--1-1-|-4--4-4--4--4-4--4-4-|-3--3-3--3--3-3--3-3-|
-2--2-2--2--2-2--2-2-|-5--5-5--5--5-5--5-5-|-3--3-3--3--3-3--3-3-|
-3--3-3--3--3-3--3-3-|-5--5-5--5--5-5--5-5-|-5--5-5--5--5-5--5-5-|
-3--3-3--3--3-3--3-3-|-3--3-3--3--3-3--3-3-|-5--5-5--5--5-5--5-5-|
-1--1-1--1--1-1--1-1-|---------------------|-3--3-3--3--3-3--3-3-|
        Slowly                 Sinking               Fooling
         
 A#           F            Cm
-1--1-1--1--1-1--1-1-|-1--1-1--1--1-1--1-1-|-3--3-3--3--3-3--3-3-|
-3--3-3--3--3-3--3-3-|-1--1-1--1--1-1--1-1-|-4--4-4--4--4-4--4-4-|
-3--3-3--3--3-3--3-3-|-2--2-2--2--2-2--2-2-|-5--5-5--5--5-5--5-5-|
-3--3-3--3--3-3--3-3-|-3--3-3--3--3-3--3-3-|-5--5-5--5--5-5--5-5-|
-1--1-1--1--1-1--1-1-|-3--3-3--3--3-3--3-3-|-3--3-3--3--3-3--3-3-|
---------------------|-1--1-1--1--1-1--1-1-|---------------------|
       Folding                Preach to          growling
            
 Gm           A#           F
-3--3-3--3--3-3--3-3-|-1--1-1--1--1-1--1-1-|-1--1-1--1--1-1--1-1-|
-3--3-3--3--3-3--3-3-|-3--3-3--3--3-3--3-3-|-1--1-1--1--1-1--1-1-|
-3--3-3--3--3-3--3-3-|-3--3-3--3--3-3--3-3-|-2--2-2--2--2-2--2-2-|
-5--5-5--5--5-5--5-5-|-3--3-3--3--3-3--3-3-|-3--3-3--3--3-3--3-3-|
-5--5-5--5--5-5--5-5-|-1--1-1--1--1-1--1-1-|-3--3-3--3--3-3--3-3-|
-3--3-3--3--3-3--3-3-|---------------------|-1--1-1--1--1-1--1-1-|
                                          
 F       F E F# E
-1--1-1----------|
-1--1-1----------|
-2--2-2----------|
-3--3-3----------|
-3--3-3--3---4---|
-1--1-1--1p0-2p0-|
                                          
 G     A#    C     A#  G     A#    C     A#  G     A#    C     A#
-3-3-----------------|-3-3-----------------|-3-3-----------------|
-3-3-----------------|-3-3-----------------|-3-3-----------------|
-4-4-x-3-3-3/5-5-53-|-4-4-x-3-3-3/5-5-53-|-4-4-x-3-3-3/5-5-53-|
-5-5-x-3-3-3/5-5-53-|-5-5-x-3-3-3/5-5-53-|-5-5-x-3-3-3/5-5-53-|
-5-5-x-1-1-1/3-3-31-|-5-5-x-1-1-1/3-3-31-|-5-5-x-1-1-1/3-3-31-|
-3-3-x---------------|-3-3-x---------------|-3-3-x---------------|
                                          
 G     A#    C     A#  G     A#    C     A#  G     A#    C     A#
-3-3-----------------|-3-3-----------------|-3-3-----------------|
-3-3-----------------|-3-3-----------------|-3-3-----------------|
-4-4-x-3-3-3/5-5-53-|-4-4-x-3-3-3/5-5-53-|-4-4-x-3-3-3/5-5-53-|
-5-5-x-3-3-3/5-5-53-|-5-5-x-3-3-3/5-5-53-|-5-5-x-3-3-3/5-5-53-|
-5-5-x-1-1-1/3-3-31-|-5-5-x-1-1-1/3-3-31-|-5-5-x-1-1-1/3-3-31-|
-3-3-x---------------|-3-3-x---------------|-3-3-x---------------|
                           keep me alive
           
 G     A#    C     A#  G     A#    C     A#  G     A#    C     A#
-3-3-----------------|-3-3-----------------|-3-3-----------------|
-3-3-----------------|-3-3-----------------|-3-3-----------------|
-4-4-x-3-3-3/5-5-53-|-4-4-x-3-3-3/5-5-53-|-4-4-x-3-3-3/5-5-53-|
-5-5-x-3-3-3/5-5-53-|-5-5-x-3-3-3/5-5-53-|-5-5-x-3-3-3/5-5-53-|
-5-5-x-1-1-1/3-3-31-|-5-5-x-1-1-1/3-3-31-|-5-5-x-1-1-1/3-3-31-|
-3-3-x---------------|-3-3-x---------------|-3-3-x---------------|
(repeat till end)

Tabbed by D@Bz
Добавлено: 22.11.2013
Другие материалы по этой песне:
  • Аккорды и текст

Страница создана 02.06.2012
http://primanota.ru/echobrain/keep-me-alive-chords.htm
Привет, Гость.
Предлагаем пройти революционный курс по гитаре.
Подарок от PrimaNota.Ru, забирай!