PrimaNota.ru - самый крупный в мире бесплатный архив песенных текстов, аккордов, табулатур и нот


Echo & The Bunnymen - With A Hip - текст песни, бас-таба, видео

Регистрация Запомнить меня
Войти через:  Facebook Google Twitter Vk Yandex Mail.ru

Echo & The Bunnymen - With A Hip - текст песни, бас-таба, видео

Печатать
Просмотров: 70
ECHO AND THE BUNNYMEN - WITH A HIP

MAIN RIFF

G------------|
D------------|
A----7-------|
E--0---8-10--|

PLAY UNTIL (0.38)

G------------------------------------------------------------------|
D------------------------------------------------------------------|
A--------5-------5-------5-------5-------5-------5-------5---------|
E--777757--777757--777757--777757--777757--777757--777757--77775-3-|

BACK INTO MAIN RIFF AT (0.52)

G------------|
D------------|
A----7-------|
E--0---8-10--|

PLAY UNTIL (1.18)

G------------------------------------------------------------------|
D------------------------------------------------------------------|
A--------5-------5-------5-------5-------5-------5-------5---------|
E--777757--777757--777757--777757--777757--777757--777757--77775-3-|

BACK INTO MAIN RIFF AT (1.32)

G------------|
D------------|
A----7-------|
E--0---8-10--|

PLAY UNTIL (1.44)

G--7h9--4--7h9--2--|
D------------------|
A------------------|
E------------------|

BACK INTO MAIN RIFF AT (2.11)

G------------|
D------------|
A----7-------|
E--0---8-10--|


PLAY UNTIL (2.25)

G------------------------------------------------------------------|
D------------------------------------------------------------------|
A--------5-------5-------5-------5-------5-------5-------5---------|
E--777757--777757--777757--777757--777757--777757--777757--77775-3-|

BACK INTO MAIN RIFF AT (2.38)

G------------|
D------------|
A----7-------|
E--0---8-10--|

PLAY UNTIL (2.51)

G--7h9--4--7h9--2--|
D------------------|
A------------------|
E------------------|

BACK INTO MAIN RIFF AT (2.58)

G------------|
D------------|
A----7-------|
E--0---8-10--|

END RIFF AT (3.07)

G-----------7h9->>>---|
D---------------------|
A----7----------------|
E--0---8-10-----------| let ring.
Добавлено: 26.06.2016
Другие материалы по этой песне:
  • Аккорды и текст

Страница создана 21.07.2012
http://primanota.ru/echo-and-the-bunnymen/with-a-hip-chords.htm
Привет, Гость.
Предлагаем пройти революционный курс по гитаре.
Подарок от PrimaNota.Ru, забирай!