PrimaNota.ru - самый крупный в мире бесплатный архив песенных текстов, аккордов, табулатур и нот


Echo & The Bunnymen - Scissors In The Sand - таба, видео

Регистрация Запомнить меня
Войти через:  Facebook Google Twitter Vk Yandex Mail.ru

Echo & The Bunnymen - Scissors In The Sand - таба, видео

Печатать
Просмотров: 117
Tuning:E A D G B E
Min Riff (Intro)
e|-------------0-----0-------0--------------------0------0----0------------------------|
B|----------8-------8----8------8-------------7-------7-----7------7-------------------|
G|-------------------------------------------------------------------------------------|
D|-------------------------------------------------------------------------------------|
A|-------------------------------------------------------------------------------------|
E|-------------------------------------------------------------------------------------|

e|------------0---------0-------0----------------0----0------0--------|
B|-------10--------10-----10--------10---------5------5-----5------5--|
G|--------------------------------------------------------------------|
D|--------------------------------------------------------------------|
A|--------------------------------------------------------------------|
E|--------------------------------------------------------------------|
Then do the same thing again but do the thing on the 10th fret again but instead of going to the 5th Go:

e|---------------0---------0---------0-------------------------------------------------|
B|---------17-------17--------17-----------17------------------------------------------|
G|-------------------------------------------------------------------------------------|
D|-------------------------------------------------------------------------------------|
A|-------------------------------------------------------------------------------------|
E|-------------------------------------------------------------------------------------|
Then There some grungy sounding Power Chords:
   Which is also the verse chords.
e|-------------------------------------------------------------------------------------|
B|-------------------------------------------------------------------------------------|
G|-------------------------------------------------------------------------------------|
D|-----------------------9--------------------------12------12--------1---14-----------|
A|------------7--------------(4 times)---------10-------10-----------------------------|
E|-------------------------------------------------------------------------------------|
Carried on here:

e|---------------------------------------------------------------------------------|
B|---------------------------------------------------------------------------------|
G|---------------------------------------------------------------------------------|
D|------------------14---------------14--------------------------------------------|
A|------12--------------------12---------------------------------------------------|
E|-
Bridge 1 Goes:

--------------------------------------------|
e|------------------------------------------|
B|------------------------------------------|
G|------------------------------------------|
D|----------------5-------------------------|
A|-----3------------------(Loads Of Times)--|
E|------------------------------------------|
The Back to The Grungy Power Chords
                       Bridge 2 goes:
e|-------------------------------------------------------------------------------|
B|-------------------------------------------------------------------------------|
G|-------------------------------------------------------------------------------|
D|---------------2---------------------------------------2-----------------------|
A|------3-------------(lots of times) then it goes ------0---(lots of times)-----|
E|-------------------------------------------------------------------------------|
There is a part in it with picky chords too but i just let the keyboards do that .

Song order:

Intro
Grungy Chords(verse)
Bridge1
Grungy Chords(verse)
Bridge2
Grungy Chords(verse)
Bridge2
Wiered Bit
Grungy Chords(Verse)
Bridge1
Grungy Chords (verse)
BridgeBridge 2
Grungy Chords (with feedback and weired sounds over the top)
Wiered Bit (to fade)
Добавлено: 06.07.2012
Другие материалы по этой песне:
  • Аккорды и текст

Страница создана 06.07.2012
http://primanota.ru/echo-and-the-bunnymen/scissors-in-the-sand-chords.htm
Привет, Гость.
Предлагаем пройти революционный курс по гитаре.
Подарок от PrimaNota.Ru, забирай!