PrimaNota.ru - самый крупный в мире бесплатный архив песенных текстов, аккордов, табулатур и нот


Eccentronic Research Council - Sweet Saturn Mine - таба, видео

Регистрация Запомнить меня
Войти через:  Facebook Google Twitter Vk Yandex Mail.ru

Eccentronic Research Council - Sweet Saturn Mine - таба, видео

Печатать
Просмотров: 17
-------------------------------------------------------------------------------
                             Sweet Saturn Mine - The Moonlandingz/Eccentronic Research Council
-------------------------------------------------------------------------------
Tabbed by: dillsmckay
E-mail: dillsmckay@gmail.com

Ok so... This is an absolute bare-bones tab, hard to recreate that sound with an acoustic guitar. My hope is 
that this will bring some of you out of the woodwork to make a decent tab - this one should work for a 
sing-a-long.

Best band nobody seems to have heard of (outside BBC 6 Radio in the UK). A bit obsessed with them actually,
which I suppose fits the theme of the album...

Best song of the decade so far :)

https://www.youtube.com/watch?v=G-f_yV3N2e8

Tuning: Standard

INTRO 
e|---------------------------------------------------------------------------|
B|---------------------------------------------------------------------------|
G|--5-----------------3-----------------------------------8------------------|
D|--5-----2--3--2--0--3-----2--3--2--0--6-----2--3--2--0--8----8-------------|   x2
A|--3--3--------------1--3--------------6--3--------------6----8-------------|
E|--------------------------------------4----------------------6-------------|

RIFF 
e|---------------------------------------------------------------------------|
B|---------------------------------------------------------------------------|
G|-----------3~-------3--2--1~-----------------------------------------------|
D|-----2--5--------------------------------4~----4-----4----3~~~~------------|  
A|--3--------------1-----------------3--6-----------6------------------------|
E|--------------------------------4------------------------------------------|

BASIC CHORDS

There are about three variations, use whatever you like. Again, this is trying to tab an almost purely electronic song, so it won't be entirely accurate - sounds ok though. 

A

e|--------------------------------------------------------------------------------|
B|--------------------------------------------------------------------------------|
G|--5--5--5--5--5--5--5--5--3--3--3--3--3--3--3--3--------------------------8-----|
D|--5--5--5--5--5--5--5--5--3--3--3--3--3--3--3--3--6--6--6--6--6--6--6--6--8---8-|
A|--3--3--3--3--3--3--3--3--1--1--1--1--1--1--1--1--6--6--6--6--6--6--6--6--6---8-|
E|--------------------------------------------------4--4--4--4--4--4--4--4------6-|

B

e|--------------------------------------------------------------------------------|
B|--------------------------------------------------------------------------------|
G|--5--5--5--5--5--5--5--5--3--3--3--3--3--3--3--3--------------------------------|
D|--5--5--5--5--5--5--5--5--3--3--3--3--3--3--3--3--6--6--6--6--6--6--6--6--------|
A|--3--3--3--3--3--3--3--3--1--1--1--1--1--1--1--1--6--6--6--6--6--6--6--6--------|
E|--------------------------------------------------4--4--4--4--4--4--4--4--------|

e|--------------------------------------------------------------------------------|
B|--------------------------------------------------------------------------------|
G|--------------3--3--3--3--------------------------------------------------------|
D|--3--3--3--3--3--3--3--3--------------------------------------------------------|
A|--3--3--3--3--1--1--1--1--------------------------------------------------------|
E|--1--1--1--1--------------------------------------------------------------------|

C

e|--------------------------------------------------------------------------------|
B|--------------------------------------------------------------------------------|
G|--5--5--5--5--5--5--5--5--3--3--3--3--3--3--3--3--------------------------------|
D|--5--5--5--5--5--5--5--5--3--3--3--3--3--3--3--3--6--6--6--6--6--6--6--6--------|
A|--3--3--3--3--3--3--3--3--1--1--1--1--1--1--1--1--6--6--6--6--6--6--6--6--------|
E|--------------------------------------------------4--4--4--4--4--4--4--4--------|

e|--------------------------------------------------------------------------------|
B|--------------------------------------------------------------------------------|
G|--8--8--8--8--10--10--10--10----------------------------------------------------|
D|--8--8--8--8--10--10--10--10----------------------------------------------------|
A|--6--6--6--6--8---8---8---8-----------------------------------------------------|
E|--------------------------------------------------------------------------------|



************************************

| /   slide up
| \   slide down
| h   hammer-on
| p   pull-off
| ~   vibrato
| +   harmonic
| x   Mute note
| b   Bend
| pb  Pre-bend
| br  Bend release
| pbr Pre-bend release
| brb Bend release bend

************************************
Добавлено: 10.12.2015
Другие материалы по этой песне:
  • Аккорды и текст

Страница создана 10.12.2015
http://primanota.ru/eccentronic-research-council/sweet-saturn-mine-chords.htm
Привет, Гость.
Предлагаем пройти революционный курс по гитаре.
Подарок от PrimaNota.Ru, забирай!