PrimaNota.ru - самый крупный в мире бесплатный архив песенных текстов, аккордов, табулатур и нот


Ebba Gron - Ung Och Sankt - таба, видео

Регистрация Запомнить меня
Войти через:  Facebook Google Twitter Vk Yandex Mail.ru

Ebba Gron - Ung Och Sankt - таба, видео

Печатать
Просмотров: 69
Ung & Sänkt By: Ebba Gron.

Intro:
   A     F     G               A F G               A F G               G
E|-------------------------------------------------------------------------------------------------|
B|-------------------------------------------------------------------------------------------------|
G|---------------------------------------------------------------------7----7-7-7----7-7-7----7-7-7|
D|-2-2-2-----------------------2-------------------2-------------------5----5-5-5----5-5-5----5-5-5|
A|-0-0-0-3-3-3-5-5-5-5-5-5-5-5-0-3-5-5-5-5-5-5-5-5-0-3-5-5-5-5-5-5-5-5-----------------------------|
E|-------1-1-1-3-3-3-3-3-3-3-3---1-3-3-3-3-3-3-3-3---1-3-3-3-3-3-3-3-3-----------------------------|

Verse:
   B                           D                               |
E|-------------------------------------------------------------|
B|-----------------------------3-3-3-3-3-3-3-3-3-3-3-3-3-3-3-3-|
G|-----------------------------2-2-2-2-2-2-2-2-2-2-2-2-2-2-2-2-|
D|-4-4-6-4-4-6-4-4-6-4-4-4-6-4-0-0-0-0-0-0-0-0-0-0-0-0-0-0-0-0-|
A|-2-2-2-2-2-2-2-2-2-2-2-2-2-2---------------------------------|
E|-------------------------------------------------------------|

 Play this the second time.
|-----------------------------------------|
|-2/3-3-3-2/3-3-3-3-3-2/3-3-3-2/3-3-3-3-3-|
|-1/2-2-2-1/2-2-2-2-2-1/2-2-2-1/2-2-2-2-2-|
|-----------------------------------------|
|-----------------------------------------|
|-----------------------------------------|
   . . . . . . . . . . . . . .
   A                               G        F        E
E|----------------------------------------------------------------------------|
B|----------------------------------------------------------------------------|
G|----------------------------------------------------------------------------|
D|-2-2-4-2-2-4-2-2-4-2-2-2-4-2------------------------------------------------|
A|-0-0-0-0-0-0-0-0-0-0-0-0-0-0-----5--5--5--3--3--3--2--2--2--2-2-2-2-2-2-2-2-|
E|---------------------------------3--3--3--1--1--1--0--0--0--0-0-0-0-0-0-0-0-|
   . . . . . . . . . . . . . .                                . . . . . . . .

Chorus:
   A     F     G
E|-----------------------------|
B|-----------------------------|
G|-----------------------------|
D|-2-2-2-----------------------|
A|-0-0-0-3-3-3-5-5-5-5-5-5-5-5-|
E|-------1-1-1-3-3-3-3-3-3-3-3-| X2

   G
E|------------------------|
B|------------------------|
G|-7--7-7-7--7-7-7--7-7-7-|
D|-5--5-5-5--5-5-5--5-5-5-|
A|------------------------|
E|------------------------|

Finish the song off with an A power chord.

By:themechanix100
Добавлено: 28.09.2013
Вам также может быть интересно:
Другие материалы по этой песне:
  • Аккорды и текст

Страница создана 28.09.2013
http://primanota.ru/ebba-gron/ung-och-sankt-chords.htm
Привет, Гость.
Предлагаем пройти революционный курс по гитаре.
Подарок от PrimaNota.Ru, забирай!