PrimaNota.ru - самый крупный в мире бесплатный архив песенных текстов, аккордов, табулатур и нот


Ebba Gron - Skjut En Snut - таба, видео

Регистрация Запомнить меня
Войти через:  Facebook Google Twitter Vk Yandex Mail.ru

Ebba Gron - Skjut En Snut - таба, видео

Печатать
Просмотров: 123
-------------------------------------------------------------|
-------------------------------------------------------------|
---2-2-4-4-5-5-7-9-9-----------------------------------------|
---2-2-4-4-5-5-7-9-9-----------------------------------------|
---0-0-2-2-3-3-5-7-7-----------------------------------------|
-------------------------------------------------------------|


-------------------------------------------------------------|
-------------------------------------------------------------|
-----10-10-10-9-9------5-5-5-5--7----7-7--9-9----------------|
-----10-10-10-9-9-x3---5-5-5-5--7----7-7--9-9----------------| CHORUS
------8-8--8--7-7------3-3-3-3--5----5-5--7-7----------------|
-------------------------------------------------------------|

  A                 E
 satt i en cell och ja va full.............. VERSE
Добавлено: 22.06.2012
Другие материалы по этой песне:
  • Аккорды и текст

Страница создана 22.06.2012
http://primanota.ru/ebba-gron/skjut-en-snut-chords.htm
Привет, Гость.
Предлагаем пройти революционный курс по гитаре.
Подарок от PrimaNota.Ru, забирай!