PrimaNota.ru - самый крупный в мире бесплатный архив песенных текстов, аккордов, табулатур и нот


The Eat - Communist Radio - таба, видео

Регистрация Запомнить меня
Войти через:  Facebook Google Twitter Vk Yandex Mail.ru

The Eat - Communist Radio - таба, видео

Печатать
Просмотров: 62
Band: The Eat
Song: Communist Radio (1979)
Tabber: Andrew Biles

Standard tuning

         A       
I walked out in the Indian ocean
       E
I wore boots but they did not show
       A
I got caught getting caught in the motion
Bm           F#
Communist radio

      A
I got tied to the Chinese nation
         E
I got friends that I do not know
       A
I got all kinds of bad relations
Bm            F# 
Communist radio 
G            E
All over the world

       A
I got friends down in Costa Rica
       E
See a guerilla wanna rock'n'roll
         A
I got a friend of two in Tanzania
Bm           F#
Communist radio

        A
If you ever wanna feeling fine now
        E
If you ever feel the need to know
         A
Keep on playin' that socialist line now
Bm            F#
Communist radio
G            E
All over the world


      A                      E
|---------------------------------------------------
|---------------------------------------------------
|---------------------------------------------------
|-----7--7---7----7--9b-9-7-------------------------
|-7-9------9----9------------7--7---7----7--9b-9-7--
|---------------------------------9----9------------

   A                     Bm         F#
|--------------------------------------
|--------------------------------------
|--------------------------------------
|-7--7---7----7--9b-9-7--9-9-9--9-9-8--
|------9----9--------------------------
|--------------------------------------

  G                                           E
|---------------------------------------------------------------------------------------------
|---------------------------------------------------------------------------------------------
|-------12----12-12----12-12----12-12----12--/13--13-13--13-13-13-13-14-14-14-14-13-13-13-13--
|-12-12-12h14-12-12h14-12-12h14-12-12h14-12--/14--14-14--14-14-14-14-14-14-14-14-14-14-14-14--
|---------------------------------------------------------------------------------------------
|---------------------------------------------------------------------------------------------


         A       
I walked out in the Indian ocean
       E
I wore boots but they did not show
       A
I got caught getting caught in the motion
Bm           F#
Communist radio

        A
If you ever wanna feeling fine now
        E
If you ever feel the need to know
         A
Keep on playin' that socialist line now
Bm            F#
Communist radio
G            E
All over the world
Добавлено: 04.12.2015
Другие материалы по этой песне:
  • Аккорды и текст

Страница создана 04.12.2015
http://primanota.ru/eat/communist-radio-chords.htm
Привет, Гость.
Предлагаем пройти революционный курс по гитаре.
Подарок от PrimaNota.Ru, забирай!