PrimaNota.ru - самый крупный в мире бесплатный архив песенных текстов, аккордов, табулатур и нот


Easyworld - Til The Day - таба, видео

Регистрация Запомнить меня
Войти через:  Facebook Google Twitter Vk Yandex Mail.ru

Easyworld - Til The Day - таба, видео

Печатать
Просмотров: 143
Уроки эстрадного вокала в Санкт-Петербурге
Til the day for guitar

this is somewhat worked out from verious acoustic versions and the bonus CD.
its not 100% accurate but its a vague idea. some parts are almost impossible
to hear so ive put in things that sorta work. its only an acoustic version
after all!

Capo on 2nd fret

these are the main riffs... sorta. variations on these are played throughout
the song. sometimes where a part is more intense picking stops and chords are
played instead but improvise your own version and you should come up with
something quite good

riff1
e-----------------------------|
B-0-----0h1p0-----1-----3---3-|
G---0---------0-----0-----0---|
D-----0---------------2-------|
A-------0-------2-3-----5-----|
E-3---------------------------|


riff2

e-----------------------2p3p2---------------------3--2-------2-----|
B-0-----0h1p0-----3-----------3---------1-------1----------3---3---|
G---0---------0-----2-----------2-----0-------0----------2-------2-|
D-----2---------2-0---0-0---------0h2-----0h2-----0----0-----------|
A-------2-------------------------3--------------------------------|
E-0----------------------------------------------------------------|


Intro

riff1 x2


Verse 1

riff1 x4
And the churches won't stretch out through tarmac and flyovers,
The city don't smell like they said in the brochures,
riff2
And it's no longer surprising when lovers and lawyers, they lie,
riff1 x2
But I'd gladly put up with this shit 'til the day that I die.

Verse 2 as verse 1

Well we've had our problems but hey hasn't everyone?
As soon as they're gone we just drag in another one,
Cos I see that your upset but you say there's a lash in your eye,
And I'll gladly put up with your shit 'til the day that I die.

Middle 8
riff 1
riff2 x 2
aaaaaaah oooooh aaaaaah etc

Verse3 as verse 1

Yeah well, I get the feeling I'm just not cut out for this,
All strategys, hidden agendas and politics,
But if we can stand before legions of enemies, just you and I,
And I'll gladly put up with this shit 'til the day that I die,
'til the day that I die,

riff 1 x2
'til the day that I die.
Oh the day that I die.

Ending riff 1 repeated

And I, well they will not hurt me at all,
And I, well they will not hurt me at all,
And I, well they will not hurt me at all,
Well they will not hurt me at all,
And I, well they will not hurt me at all.
Добавлено: 01.04.2014
Другие материалы по этой песне:
  • Аккорды и текст

Страница создана 01.04.2014
http://primanota.ru/easyworld/til-day-chords.htm
Привет, Гость.
Предлагаем пройти революционный курс по гитаре.
Подарок от PrimaNota.Ru, забирай!