PrimaNota.ru - самый крупный в мире бесплатный архив песенных текстов, аккордов, табулатур и нот


Easyworld - Junkies And Whores - таба, бас-таба, видео

Регистрация Запомнить меня
Войти через:  Facebook Google Twitter Vk Yandex Mail.ru

Easyworld - Junkies And Whores - таба, бас-таба, видео

Печатать
Просмотров: 125
Уроки эстрадного вокала в Санкт-Петербурге
Junkies and Whores

Guitar Version: ok my “skills” don’t reach as far as 8 strings but this is how I
play junkies and whores on my electric/acoustic (this works v well on acoustic guitar)


Intro

Lightly strummed (tab doesn’t indicate number of strums)


E-2-2-0-0-x-x-x-x-2-2-0-0-x-x-x-x-|
B-0-0-0-0-2-2-0-0-0-0-0-0-2-2-x-x-|
G-1-1-1-1-1-1-1-1-1-1-1-1-1-1-2-2-|
D-2-2-2-2-2-2-2-2-2-2-2-2-2-2-2-2-|
A-2-2-2-2-2-2-2-2-2-2-2-2-2-2-2-2-|
E-0-0-0-0-0-0-0-0-0-0-0-0-0-0-0-0-|

main verse chords
E-4-4-4-4-5-5-5\4-4p0-4-4-5p4-4p0-6-6-6-6-|
B-5-5-5-5-2-2-2-2-2-2-5-5-5-5-5-5-7-7-4-5-|
G-6-6-6-6-2-2-2-2-2-2-4-4-4-4-4-4-6-6-6-6-|
D-6-6-6-6-2-2-2-2-2-2---------------------|
A-----------------------------------------|
E-----------------------------------------|

(play above part for lead below is just implied chords until the final A)


Verse 1

(C#min)      (A)
you sleep so still
          (E)
and after everything
                 (F#)
we claim to have forgiven
(C#min)  (A)
the no return
         (E)
was 12 returns ago
                  (F#)
and every one the last
            Asus2
this time i swear - did you really believe that?


Chorus

(over the top of chorus)
e------------------------|
B------------------------|
G-9-11-13-14-19-17-16-14-|
D------------------------| x2
A-7-9--11-12-17-15-14-12-|
E------------------------|

E       C#min
i am we are sadly too
C
far the line we had drawn before is thinning
D
out too far, gone
E          C#min
we need no more junkies and
C
whores the line we had drawn before has disappeared
D
too far gone


Verse 2

repeat guitar from verse 1

i know these words
these sounds i recognise
and shapes all too familiar
the saddest thing;
a point to recognise;
all reasons and excuses;
well they are, i fear, as pathetic as are your own


Repeat Chorus


Middle 8


Lead guitar

  G#min   C#min  A               F#
e-----------------------x-x-------------------------------|
B-9---------------------x-x-------11----11----14----14----|
G-11b13-9-8-6-6h8p6h8-9-x-x-6-8-9-13b15-13b15-16b18-16b18-|
D-----------------------x-x-------------------------------|
A-----------------------x-x-4-6-7-------------------------|
E-----------------------x-x-------------------------------|

(last line of chorus)

D       G#min   C#min
too far goooone
    A     F#
too faaaar


Repeat chorus


Ending

same as verse chords

you sleep
so still
you'll sleep through everything...
Добавлено: 21.02.2014
Другие материалы по этой песне:
  • Аккорды и текст

Страница создана 02.03.2012
http://primanota.ru/easyworld/junkies-and-whores-chords.htm
Привет, Гость.
Предлагаем пройти революционный курс по гитаре.
Подарок от PrimaNota.Ru, забирай!