PrimaNota.ru - самый крупный в мире бесплатный архив песенных текстов, аккордов, табулатур и нот


Easy Star All-stars - Breathe In The Air - таба, видео

Регистрация Запомнить меня
Войти через:  Facebook Google Twitter Vk Yandex Mail.ru

Easy Star All-stars - Breathe In The Air - таба, видео

Печатать
Просмотров: 169
               Speak to Me/Breathe in the Air - Easy Star All-Stars
                               Dub Side Of The Moon


Verse:

e|--7--7--7--7|--5--5--5--5|
B|--8--8--8--8|--5--5--5--5|
G|--9--9--9--9|--6--6--6--6|  play it for a long time
D|--9--9--9--9|--7--7--7--7|  
A|------------|------------|  
E|------------|------------|


Chorus:

e|--3--3--3--3|--2--2--2--2|--8---8---8---8-|--3--3-------|
B|--5--5--5--5|--3--3--3--3|--10--10--10--10|--3--3-6--4--|
G|--4--4--4--4|--4--4--4--4|--9---9---9---9-|--4--4-5--5--|
D|--5--5--5--5|--4--4--4--4|--10--10--10--10|--5--5-4--4--|
A|------------|------------|----------------|-------5--6--|
E|------------|------------|----------------|-------------|


A soft chorus tone with a little bit of reverb would be perfect for this song! 
Добавлено: 21.06.2012
Другие материалы по этой песне:
  • Аккорды и текст

Страница создана 21.06.2012
http://primanota.ru/easy-star-all-stars/breathe-in-the-air-chords.htm
Привет, Гость.
Предлагаем пройти революционный курс по гитаре.
Подарок от PrimaNota.Ru, забирай!