PrimaNota.ru - самый крупный в мире бесплатный архив песенных текстов, аккордов, табулатур и нот


Earthborn Kings - Pandoras Box - таба, видео

Регистрация Запомнить меня
Войти через:  Facebook Google Twitter Vk Yandex Mail.ru

Earthborn Kings - Pandoras Box - таба, видео

Печатать
Просмотров: 155
Уроки эстрадного вокала в Санкт-Петербурге
-------------------------------------------------------------------------------
                             PANDORA'S BOX - EARTHBORN KINGS
-------------------------------------------------------------------------------
100% correct - tabbed by EBK's guitarist

Tuning: Drop C

0:00 - INTRO: (both guitars)

d|-----------------|
A|-----------------|
F|-----------------|
C|-----------------|
G|--3-2-0-5-3-0----|
C|--3-2-0-5-3-0----| X4

0:04 - GUITAR 1 continues to play the above section whilst guitar 2 plays:

d|----------------------------|
A|----------------------------|
F|--99999999/10101010\777-----|
C|----------------------------|
G|--77777777/8-8-8-8-\555-----|
C|----------------------------| X2

0:08 - GUITAR 2 harmonies the above section:

d|--------------------------------------|
A|--------------------------------------|
F|--1212121212121212/14141414\101010----|
C|--------------------------------------|
G|--1010101010101010/12121212\8-8-8-----|
C|--------------------------------------|

0:12 - (both guitars repeat intro riff)

d|-----------------|
A|-----------------|
F|-----------------|
C|-----------------|
G|--3-2-0-5-3-0----|
C|--3-2-0-5-3-0----| X4

0:16 - both guitars play this but as a call and response (listen to song for timing)

d|---------------------------------------------------------------------------|
A|---------------------------------------------------------------------------|
F|---------------------------------------------------------------------------|
C|---------------------------------------------------------------------------|
G|------------------------------------------------5h8p5---------4h7p4--------|
C|--000---000---000---000---000---000------5h8p5---------4h7p4---------------| X2

0:26 - both guitars (note how the last note of every 4 is not palm muted):

d|--------------------------------------------------------------------------------|
A|--------------------------------------------------------------------------------|
F|--------------------------------------------------------------------------------|
C|--------------------------------------------------------------------------------|
G|--0000-0000-0000-0000-0000-0000-0000------------0000-0000-0000-0000-0000-0000---|
C|--1111-1111-1111-1111-1111-1111-1111--44443333--1111-1111-1111-1111-1111-1111---|
    ...  ...  ...  ...  ...  ...  ...             ...  ...  ...  ...  ...  ...


0:35 - 5/4 timed riff (both guitars, play 4 times then 2nd guitar plays harmony)

d|-------------------------|
A|-------------------------|
F|-------------------------|
C|-------------------------|
G|--------4h5-------7h8----|
C|--0-5-7-----0-7-8--------|

0:41 - harmony

d|-------------------------------|
A|-------------------------------|
F|-------------------------------|
C|-------------------------------|
G|----------7h8---------10h12----|
C|--0-8-10------0-10-12----------|

0:50 - GUITAR 1

d|------------------------------------------------------|
A|------------------------------------------------------|
F|---------7---------9---------10-----------------------|
C|---------x---------x---------x------------------------|
G|---------5---------7---------8-----0000---------------|
C|--320-00----320-00----320-00-------1111--44443333-----| X4

GUITAR 2

d|----------------------------------------------------|
A|----------------------------------------------------|
F|---------10--------12--------14---------------------|
C|---------x---------x---------x----------------------|
G|---------8---------10--------12---0000--------------|
C|--320-00----320-00----320-00------1111--44443333----| X4

1:10 - Both guitars

d|----------------|
A|----------------|
F|----------------|
C|----------------|
G|--0000--0000----|
C|--0000--0000----|
    ...   ...

1:13 - Both guitars

d|--------------------------5----------5----|
A|--------5-------6---------6----------5----|
F|--------2-------2---------7----------7----|
C|------------------------------------------|
G|--0000-----0000---------------------------|
C|--0000-----0000-----8888------5555--------| X4
    ....     ....     ....      ....

1:34 - Guitar 2

d|--------------------55555555-55555555----|
A|--55555555-66666666-66666666-55555555----|
F|--22222222-22222222-77777777-77777777----|
C|--00000000-00000000-88888888-77777777----|
G|-----------------------------------------|
C|-----------------------------------------| X3

1:34 - whilst guitar 2 plays the chords above, guitar 1 plays 3 different sections below:

d|---------------------------------------|
A|---------------------------------------|
F|--------------7/10----------77777777---|
C|--0-----------x-x--88888888-55555555---|
G|--0-----------5/8--88888888-55555555---|
C|--0----------------88888888-55555555---|

d|------------------------------------------------------------|
A|------------------------------------------------------------|
F|--77777777-7777/9999/10101010/12121212-----------77777777---|
C|--xxxxxxxx-xxxx-xxxx-x-x-x-x--x-x-x-x---88888888-55555555---|
G|--55555555-5555/7777/8-8-8-8-/10101010--88888888-55555555---|
C|--00000000------------------------------88888888-55555555---|

d|-------------------------------------------------------|
A|-------------------------------------------------------|
F|--7--------141414141414\12121212------------77777766---|
C|--x--------x-x-x-x-x-x--x-x-x-x----88888888-55555555---|
G|--5--------121212121212\10101010---88888888-55555555---|
C|-----0-----------------------------88888888-55555555---|

2:05 - Guitar 1

d|----------------------------------------------------------------------|
A|----------------------------------------------------------------------|
F|--7777777777777777/9999/1010101010101010/12121212\99999999-55555555---|
C|--xxxxxxxxxxxxxxxx-xxxx-xxxxxxxx-x-x-x-x-x-x-x-x--xxxxxxxx-xxxxxxxx---|
G|--5555555555555555/7777/8-8-8-8-8-8-8-8-/10101010\77777777\33333333---|
C|----------------------------------------------------------------------| X2

Guitar 2

d|-------------------------------------------------------------------------------------------|
A|-------------------------------------------------------------------------------------------|
F|--1010101010101010/12121212/14141414\12121212/1616161616161616\14141414\12121212\99999999--|
C|--x-x-x-x-x-x-x-x--x-x-x-x--x-x-x-x--x-x-x-x--x-x-x-x-x-x-x-x--x-x-x-x--x-x-x-x--xxxxxxxx--|
G|--8-8-8-8-8-8-8-8-/10101010/12121212\10101010/1414141414141414\12121212\10101010\77777777--|
C|-------------------------------------------------------------------------------------------| X2

2:26 - Guitar 1:

d|-------------------------------------|
A|-------------------------------------|
F|--2----1-----------------------------|
C|--3----2----10---8--------88887777---|
G|--5----4----8----5--------55555555---|
C|------------8----5-555555-55555555---|
                     ......

Guitar 2:

d|---------------------------------------------------------------------|
A|---------------------------------------------------------------------|
F|---------------------------------------------------------------------|
C|------5h7-----5h7-----5h7-----5h7-----5h7------5h7-----5h7-----5h7---|
G|--5h8-----5h8-----5h8-----5h8-----5h8------4h7-----4h7-----4h7-------|
C|---------------------------------------------------------------------|

Guitar 2 (continued)

d|----------------------------------------------------------------------|
A|----------------------------------------------------------------------|
F|----------------------------------------------------------------------|
C|------5h7-----5h7-----5h7-----5h7------5h7-----5h7------5h8-----5h8---|
G|--3h7-----3h7-----3h7-----3h7------5h8-----5h8------5h7-----5h7-------|
C|----------------------------------------------------------------------|

2:37 - Guitar 2 continues the riff above whilst guitar 1 plays these chords (listen for timing):

d|----------------------------------------------------|
A|----------------------------------------------------|
F|--22222222-111111111--------------1010--------------|
C|--33333333-222222222--101010108-8-8-8---888877557---|
G|--55555555-444444444--8-8-8-8-8-8-8-8---555555555---|
C|----------------------8-8-8-8-8-8-8-8---555555555---|

3:17 - repeat intro

3:37 - Guitar 2 (plays this alone)

d|-----------------------------------|
A|-----------------------------------|
F|-----------------------------------|
C|-----------------------------------|
G|-----------------------------------|
C|--000-000-000-000-000-000-0-0-0-0--|

3:40 - Both guitars

d|-----------------------------------------------------------------------------|
A|-----------------------------------------------------------------------------|
F|-----------------------------------------------------------------------------|
C|-----------------------------------------------------------------------------|
G|-------------------------5h8p5-------4h7p4-----------------------------------|
C|--000-000-000-000--5h8p5-------4h7p4--------000-000-000-000-000-000-0-0-0-0--|

3:45 - Guitar 1

d|---------------------------------------------------------------------|
A|---------------------------------------------------------------------|
F|---------------------------------------------------------------------|
C|---------------------------------------------------------------------|
G|-------------------------5h8p5-------4h7p4--------5h8p5-------4h7p4--|
C|--000-000-000-000--5h8p5-------4h7p4--------5h8p5-------4h7p4--------|

3:45 - Guitar 2

d|-------------------------------------------------------------------------|
A|-------------------------------------------------------------------------|
F|-------------------------------------------------------------------------|
C|-------------------------------------------------------------------------|
G|-------------------------5h8p5-------4h7p4---------8h12p8--------7h10p7--|
C|--000-000-000-000--5h8p5-------4h7p4--------8h12p8--------7h10p7---------|

3:49 - Both guitars:

d|------------------------------------------------|
A|------------------------------------------------|
F|------------------------------------------------|
C|------------------------------------------------|
G|--0000-0000-0000-0000-0000-0000-0000------------|
C|--1111-1111-1111-1111-1111-1111-1111--44443333--| X2
    ...  ...  ...  ...  ...  ...  ...            

3:59 - Guitar 2 ends with an open chord, whilst guitar 1 switches to clean:

d|--------------------55555555-55555555--|
A|--55555555-66666666-66666666-55555555--|
F|--22222222-22222222-77777777-77777777--|
C|--00000000-00000000-88888888-77777777--|
G|---------------------------------------|
C|---------------------------------------| X5

4:09 - Guitar 2 melodic solo:

d|---------------------------------------------------------------------------|
A|---------------------------------------------------------------------------|
F|--2/7--7-9b10p7h9-9/12\10/14b15-----7/9\7/10/14\9\7/9h10--12\9-10\7/10p9b--|
C|---------------------------------------------------------------------------|
G|---------------------------------------------------------------------------|
C|---------------------------------------------------------------------------|

Guitar 2 melodic solo (continued):


d|-------------------------|
A|-------------------------|
F|--7-/9h10--12\9--7-6b7---|
C|-------------------------|
G|-------------------------|
C|-------------------------|


4:51 - Guitar 1 plays the same chords as above with distortion. Guitar 2 plays:

d|-------------------------------------------------------------------------------------------|
A|-------------------------------------------------------------------------------------------|
F|--1010101010101010/12121212/14141414\12121212/1616161616161616\14141414\12121212\99999999--|
C|--x-x-x-x-x-x-x-x--x-x-x-x--x-x-x-x--x-x-x-x--x-x-x-x-x-x-x-x--x-x-x-x--x-x-x-x--xxxxxxxx--|
G|--8-8-8-8-8-8-8-8-/10101010/12121212\10101010/1414141414141414\12121212\10101010\77777777--|
C|-------------------------------------------------------------------------------------------| X3

5:12 - Guitar 1 changes to the harmony:

d|----------------------------------------------------------------------|
A|----------------------------------------------------------------------|
F|--7777777777777777/9999/1010101010101010/12121212\99999999-55555555---|
C|--xxxxxxxxxxxxxxxx-xxxx-xxxxxxxx-x-x-x-x-x-x-x-x--xxxxxxxx-xxxxxxxx---|
G|--5555555555555555/7777/8-8-8-8-8-8-8-8-/10101010\77777777\33333333---|
C|----------------------------------------------------------------------|

5:22 - Guitar 1:

d|---------------------------------------------|
A|---------------------------------------------|
F|--7777777777777777/9999/10--12---9---5---7---|
C|--xxxxxxxxxxxxxxxx-xxxx-x---x----x---x---x---|
G|--5555555555555555/7777/8---10---7---3---5---|
C|-----------------------------------------0---|

5:22 - Guitar 2

d|----------------------------------------------------------------------|
A|----------------------------------------------------------------------|
F|--1010101010101010/12121212/14141414\12121212/16---14---12---9---10---|
C|--x-x-x-x-x-x-x-x--x-x-x-x--x-x-x-x--x-x-x-x--x----x----x----x---x----|
G|--8-8-8-8-8-8-8-8-/10101010/12121212\10101010/14---12---10---7---8----|
C|----------------------------------------------------------------------|

************************************

| /   slide up
| \   slide down
| h   hammer-on
| p   pull-off
| ~   vibrato
| +   harmonic
| x   Mute note
| .   Palm mute
| b   Bend
| pb  Pre-bend
| br  Bend release
| pbr Pre-bend release
| brb Bend release bend

************************************
Добавлено: 08.05.2016
Другие материалы по этой песне:
  • Аккорды и текст

Страница создана 08.05.2016
http://primanota.ru/earthborn-kings/pandoras-box-chords.htm
Привет, Гость.
Предлагаем пройти революционный курс по гитаре.
Подарок от PrimaNota.Ru, забирай!