PrimaNota.ru - самый крупный в мире бесплатный архив песенных текстов, аккордов, табулатур и нот


Earth - Seven Angels - таба, видео

Регистрация Запомнить меня
Войти через:  Facebook Google Twitter Vk Yandex Mail.ru

Earth - Seven Angels - таба, видео

Печатать
Просмотров: 156
Drop A tuning: each tab line is a section. Over the whole song is an A bass drone.
This song is structurally improvised and as such you'll be hard pressed to play it
exactly as Dylan plays it. It's all in 4/4, however, so he only really varies the 
addition of a bar or two of open chugging to bridge between sections.

 B|---------------------------------------------------------------------------|
Bb|---------------------------------------------------------------------------|
 D|-----5---------------------------------------------------------------------|
 A|-4---5---5---5---0--0------------------------------------------------------|
 E|-4---3---5---5---0--0------------------------------------------------------|
 A|-4-------5---5---0--0------------------------------------------------------|
                    .  .

 B|---------------------------------------------------------------------------|
Bb|---------------------------------------------------------------------------|
 D|---------------------------------------------------------------------------|
 A|-0-0-0-0--8\7--0-0---11\10--0-0--13/15\13-12~-0-0-0-0--11--0-0-7h10-9------|
 E|-0-0-0-0--6\5--0-0---9-\8---0-0--11/13\11-10~-0-0-0-0--11--0-0-7h10-9------|
 A|-0-0-0-0-------0-0--(0)-----0-0-(0)-----------0-0-0-0--11--0-0-7h10-9------|
    . . . .       . .          . .               . . . .      . .          

 B|---------------------------------------------------------------------------|
Bb|---------------------------------------------------------------------------|
 D|-------------7--------------6----------------------------------------------|
 A|-0-0-0-0-7-6-7--0-0-0-0-6-5-6--0-0-0-0-4-6-3--0-----0-----0-----0---4-6-3--|
 E|-0-0-0-0-7-6-5--0-0-0-0-6-5-4--0-0-0-0-4-6-3--0-----0-----0-----0---4-6-3--|
 A|-0-0-0-0-7-6----0-0-0-0-6-5----0-0-0-0-4-6-3--0-----0-----0-----0---4-6-3--|
    . . . .        . . . .        . . . .        .     .     .     . 

 B|---------------------------------|---------------------------|---------------|
Bb|---------------------------------|---------------------------|---------------|
 D|---------------------------------|----------2h5p2-1~---------|----5----------|
 A|-(0)-1--0----6----5----8----(8)--|-0-3-2-1~----------0-0-0-0-|-4--5--5--5--0-|
 E|-(0)-1--0----6----5----8----(8)--|-0-----------------0-0-0-0-|-4--3--5--5--0-|
 A|-(0)-1--0----6----5----8----(8)--|-0-----------------0-0-0-0-|-4-----5--5--0-|
           .                          .                 . . . .               .
Добавлено: 12.09.2013
Другие материалы по этой песне:
  • Аккорды и текст

Страница создана 12.09.2013
http://primanota.ru/earth/seven-angels-chords.htm
Привет, Гость.
Предлагаем пройти революционный курс по гитаре.
Подарок от PrimaNota.Ru, забирай!