PrimaNota.ru - самый крупный в мире бесплатный архив песенных текстов, аккордов, табулатур и нот


Earth - Old Black - таба, видео

Регистрация Запомнить меня
Войти через:  Facebook Google Twitter Vk Yandex Mail.ru

Earth - Old Black - таба, видео

Печатать
Просмотров: 86
----------------------------------------------------------------- 
Old Black - Earth 
----------------------------------------------------------------- 

Tabbed by:      Joost Fibbe
Email           joostfibbe@gmail.com    
Tuning:         D#G#C#F#A#d#

Should be pretty close.


3x 0:00-2:01
d#|----------------3----------------------------------------------------------|
A#|--0------0------0---------------------------------3--3/5-3-0---------------|
F#|--0------0----0-0-----------------------------0~--2------------------------|
C#|--2------2----0-0---------2-0-(2)-----------2-----0---------(2)--------2---|
G#|--2------2------2-------3------2------0-2-3------------------2-----0-2-----|
D#|--0------0------3-----0--------0-----------------------------0-------------|


1x 2:02-2:42
d#|----------------3----------------------------------------------------------|
A#|--0------0------0---------------------------------3--3/5-3-0---------------|
F#|--0------0----0-0-----------------------------0~--2------------------------|
C#|--2------2----0-0---------2-0-(2)-----------2-----0---------(2)--------2-0-|
G#|--2------2------2-------3------2------0-2-3------------------2-----0-2-----|
D#|--0------0------3-----0--------0-----------------------------0-------------|


4x 2:43-3:47
d#|------------------------------------|
A#|--1------------1-0------------------|
F#|--2--------0h2----------------------|
C#|--2------2--------(0)---------2-0---|
G#|-------------------2--------3-------|
D#|-------------------3------0---------|


1x 3:48-4:20
d#|-------------------------------------------------------------------|
A#|-------------------------------------------------1-0---------------|
F#|----------------------------2/4-7-4-5--------0h2-------------------|
C#|---------------2-0--------4----------------2--------(2)---------2--|
G#|--3------0-2-3-----2---------------------------------2------0-2----|
D#|-----------------------------------------------------0-------------|


3x 4:21-6.23
d#|----------------3----------------------------------------------------------|
A#|--0------0------0---------------------------------3--3/5-3-0---------------|
F#|--0------0----0-0-----------------------------0~--2------------------------|
C#|--2------2----0-0---------2-0-(2)-----------2-----0---------(2)--------2---|
G#|--2------2------2-------3------2------0-2-3------------------2-----0-2-----|
D#|--0------0------3-----0--------0-----------------------------0-------------|


7x 6:24-8:15
d#|------------------------------------|
A#|-----5-7\5-3-5----------------------|
F#|---------------------7--------------|
C#|-------------------5---4-0-2/4-2~---|
G#|------------------------------------|
D#|--0---------------------------------|


1x 8:16-8:50
d#|-------------------0----------|
A#|----------------------0-------|
F#|------------------------------|
C#|---------------2\-------------|
G#|-----------0-2----------------|
D#|--0---------------------------|


| /  slide up
| \  slide down
| h  hammer-on
| p  pull-off
| ~  vibrato
| +  harmonic
| x  Mute note
Добавлено: 20.03.2016
Вам также может быть интересно:
Другие материалы по этой песне:

Страница создана 20.03.2016
http://primanota.ru/earth/old-black-chords.htm
Привет, Гость.
Предлагаем пройти революционный курс по гитаре.
Подарок от PrimaNota.Ru, забирай!