PrimaNota.ru - самый крупный в мире бесплатный архив песенных текстов, аккордов, табулатур и нот


Earth Crisis - The Discipline - текст песни, таба, драм-таба, видео

Регистрация Запомнить меня
Войти через:  Facebook Google Twitter Vk Yandex Mail.ru

Earth Crisis - The Discipline - текст песни, таба, драм-таба, видео

Печатать
Просмотров: 141
-------------------------------------------------------------------------------
                             THE DISCIPLINE - Earth Crisis
-------------------------------------------------------------------------------
Tabbed by: min0r_threat
E-mail: ngrantj@yahoo.com

Tuning: Standard

RIFF 1
e|--------------------------|
B|--------------------------|
G|--------------------------|
D|--2---2-2---2---2-2-2-----|
A|--2---2-2---2---2-2-2-----|
E|--3---0-0---3---0-0-0-----|
        - -       - - -   

RIFF 2
e|-------------------------------------------------------------------|
B|-------------------------------------------------------------------|
G|------4--5--7--7---7--7-7-5-4--------------------------------------|
D|--2---4--5--7--7---7--7-7-5-4----------------------------6--5------|
A|--2---2--3--5--5---5--7-5-3-2--2-2-3-2-2-2-3-2-2-2-3-2---6--5------|
E|--0----------------------------0-0-1-0-0-0-1-0-0-0-1-0---4--3------|
                                 - - - - - - - - - - - -

RIFF 3
e|------------------------------------|
B|------------------------------------|
G|------------------------------------|
D|------------------------------------|
A|--8/9--9-10-5--2222-2222-22222------|
E|--6/7--7-8--3--0000-0000-00000------|
                 ---- ---- -----

RIFF 4
e|----------------------------------|
B|----------------------------------|
G|----------------------------------|
D|--2---4---8-----------------------|
A|--2---4---8---222--222--2222------|
E|--0---2---6---000--000--0000------|
                ---  ---  ----

RIFF 5
e|----------------------------------------------------|
B|----------------------------------------------------|
G|----------------------------------------------------|
D|-----------------------------------------7---6------|
A|--------2--1---------------2-2--2-2--2---7---6------|
E|--0--3--------0--3--2--1---0-0--0-0--0---5---4------|
                             - -  - -  -

RIFF 6
e|----------------------------------------------|
B|----------------------------------------------|
G|----------------------------------------------|
D|--2---------6---8-----------------------------|
A|--2---------6---8---3-2--3-2---6-5--3-2-------|
E|--0---------4---6---1-0--1-0---4-3--1-0-------|
                      - -  - -   - -  - -

RIFF 7
e|-----------------------------|
B|-----------------------------|
G|-----------------------------|
D|--2--------3-----------------|
A|--2---2-2--1-2---3-2--5------|
E|--0---0-0----0---1-0--3------|
        - -        - -

END RIFF
e|-------------------------|
B|-------------------------|
G|-------------------------|
D|------------3------------|
A|--2-2--2-2--1-3--3-2-----|
E|--0-0--0-0----1--1-0-----|
    - -  - -  - -  - -

SONG STRUCTURE:

RIFF 1 x6
RIFF 2 x4
RIFF 3 x9
RIFF 4 x4
RIFF 5 x2
RIFF 1 x6
RIFF 6 x4
RIFF 7 x4
END RIFF

And that's it!

************************************

| /   slide up
| -   palm mute

************************************
Добавлено: 13.11.2013
Вам также может быть интересно:
Другие материалы по этой песне:
  • Аккорды и текст

Страница создана 08.04.2012
http://primanota.ru/earth-crisis/the-discipline-chords.htm
Привет, Гость.
Предлагаем пройти революционный курс по гитаре.
Подарок от PrimaNota.Ru, забирай!