PrimaNota.ru - самый крупный в мире бесплатный архив песенных текстов, аккордов, табулатур и нот


Earlyrise - Wasteland - бас-таба, видео

Регистрация Запомнить меня
Войти через:  Facebook Google Twitter Vk Yandex Mail.ru

Earlyrise - Wasteland - бас-таба, видео

Печатать
Просмотров: 52
-------------------------------------------------------------------------------
                             SONG NAME - Band Name
-------------------------------------------------------------------------------
Tabbed by: Slimb73
E-mail: Lazyghost11@gmail.com

Tuning: Drop D (D,A,D,G)

Bass starts at 0:28
If an x follows that note mute that note. If not number is present, then 
mute open string.

G|---------------------------------------------------------------------------|
D|---------------------------------------------------------------------------|
A|---------------------------------------------------------------------------|
D|0-0-0-8-8-0-0-0-8-8-8x-x-x-x-12-0-0-10-7-0-8-7-0-7-5-0-3-3-2-3-3-3--3-3-3-3|

G|---------------------------------------------------------------------------|
D|---------------------------------------------------------------------------|
A|---------------------------------------------------------------------------|
D|3-3-3-3-3-3-3-5-5-5-8-8-8-2-2-2-5-5-5-2-2-3-2-0-0-0-8-8-8-0-0-0-8--8-8x-x-x|

G|---------------------------------------------------------------------------|
D|---------------------------------------------------------------------------|
A|---------------------------------------------------------------------------|
D|0-12-0-0-10-7-0-8-0-7-5-0-3-3-2-3-3-3--3-3-3-3--3-3-3-3-3-3-3-5--5--5-2----|

G|---------------------------------------------------------------------------|
D|---------------------------------------------------------------------------|
A|----------5(h)------3/5(h)------5(h)----3(h)----1-1-1-1-1-1-1-1-1-1-1-1-1-1|
D|0(h)-----------------------------------------------------------------------|

G|---------------------------------------------------------------------------|
D|---------------------------------------------------------------------------|
A|1-1-3-3-3-3-3-3-2-2-2-2-2-2-3-3-3-3-----------5(h)------3/5(h)-----5(h)----|
D|------------------------------------0(h)-----------------------------------|

G|---------------------------------------------------------------------------|
D|---------------------------------------------------------------------------|
A|3(h)----1-1-1-1-1-1-1-1-1-1-1-1-1-1-1-1-3-3-3-3-3-3-2-2-2-2-2-2-3-3-3-3----|
D|------------------------------------------------------------------------5-5|

G|---------------------------------------------------------------------------|
D|---------------------------------------------------------------------------|
A|---------------------------------------------------------------------------|
D|5-5-5-5-5-5-5-5-5-5-5-5-5-5-7-7-7-7-7-7-7-7-7-7-7-7-7-7-7-7-8-8-8-8-8-8-8-8|

G|---------------------------------------------------------------------------|
D|------------------------------------------------------------------10(h)--10|
A|---------------------------------------------------------------------------|
D|8-8-8-8-8-8-8-8-10-10-10-10-10-10-9-9-9-9-9-9-10-10-10-10-8(h)--8----------|

G|---------------------------------------------------------------------------|
D|--------7(h)--7------------------------------------------------------------|
A|-------------------------------3(h)--3-------------------3-3-3-3-----------|
D|5(h)--5--------2-5-3-2-0(h)--0---------5(h)----5(h)----5-----------8(h-----|

G|---------------------------------------------------------------------------|
D|10(h)--------------7(h)----7-----------------------------------------------|
A|--------------------------------------------3-3-3--------------------------|
D|---------5(h)----5-----------2-5-3-2-0(h)----------5(h)---5(h)---5-8/10-10-|

G|---------------------------------------------------------------------------|
D|-----------10(h)--10---------7(h)--7---------------------------------------|
A|-----------------------------------------------------3(h)--3---------------|
D|10-8(h)--8-----------5(h)--5---------2-5-3-2-0(h)--0---------5(h)---5(h)---|

G|---------------------------------------------------------------------------|
D|-----------------10(h)------------7(h)---7---------------------------------|
A|--3-3-3-3------------------------------------------1(h)---1(h)---1-3(h)----|
D|5---------8(h)-----------5(h)---5----------2-5-3-2-------------------------|

G|---------------------------------------------------------------------------|
D|---------------------------------------------------------------------------|
A|--------------------------------------3-3-1(h)-----------------3-3---------|
D|-------0(h)----------------0-0---------------------------------------------|

G|---------------------------------------------------------------------------|
D|---------------------------------------------------------------------------|
A|1/3-3-3-3-------------------5----------------3-3-3-1(h)-----------------3-3|
D|----------0(h)----------------0--------------------------------------------|

G|---------------------------------------------------------------------------|
D|---------------------------------------------------------------------------|
A|-----332-2-1/3-3-3-3-------------------------------------------------------|
D|---------------------5-5-5-5-5-5-5-5-5-5-5-5-5-5-5-5-7-7-7-7-7-7-7-7-7-7-7-|

G|---------------------------------------------------------------------------|
D|---------------------------------------------------------------------------|
A|---------------------------------------------------------------------------|
D|7-7-7-7-7-8-8-8-8-8-8-8-8-8-8-8-8-8-8-8-8-10-10-10-10-10-10-9-9-9-9-9-9-10-|

G|---------------------------------------------------------------------------|
D|-------------------------------------------------------------------10(h)---|
A|--------------------------3(h)---3-----------------3-3-3-3-----------------|
D|10-10-10---------0(h)---0----------5(h)---5(h)---5----------8(h)-----------|

G|---------------------------------------------------------------------------|
D|---------7(h)---7----------------------------------------------------------|
A|-----------------------------------3-3-3-----------------------------------|
D|5(h)---5----------2-5-3-2-0(h)---0-------5-5-5-5(h)---5-10-10-10-10-8(h)---|

G|---------------------------------------------------------------------------|
D|--10(h)---10----------7(h)---7---------------------------------------------|
A|------------------------------------------------3(h)---3-------------------|
D|8------------5(h)---5----------2-5-3-2-0(h)---0----------5(h)----5(h)----5-|

G|---------------------------------------------------------------------------|
D|---------------10(h)------------7(h)---7-----------------------------------|
A|3-3-3-3------------------------------------------1(h)---1(h)---1-3(h)------|
D|--------8(h)-----------5(h)---5----------2-5-3-2---------------------------|

G|---------------------------------------------------------------------------|
D|---------------------------------------------------------------------------|
A|--------------------------------3/5(h)----------3(h)------1(h)-------------|
D|-----------0(h)------------------------------------------------------------|

G|---------------------------------------------------------------------------|
D|---------------------------------------------------------------------------|
A|----3(h)-------2(h)------3(h)--------------------------------------5-5-5-5-|
D|-----------------------------------0-0-0-0-0-0-0-0-0-0-0-0-0-0-0-0---------|

G|---------------------------------------------------------------------------|
D|---------------------------------------------------------------------------|
A|5-5-5-5-5-5-5-5-5-5-5-3-3-3-3-1-1-1-1-1-1-1-1-1-1-1-1-1-1-1-1-3-3-3-3-3-3-2|
D|---------------------------------------------------------------------------|

G|---------------------------------------------------------------------------|
D|---------------------------------------------------------------------------|
A|2-2-2-2-2-3-3-3-3---------------------------------------------------3-3-3-3|
D|------------------0-0-0-0-0-0-0-0-0-0-0-0-0-0-0-0-0-0-0-0-0-0-0-0-0--------|

G|---------------------------------------------------------------------------|
D|---------------------------------------------------------------------------|
A|1-1-1-1-1-1-1-1-1-1-1-1-1-1-1-1--------------------------------------------|
D|--------------------------------5-5-5-5-5-5-3-3-3-3-3-3-2-2-2-2-0-0-0-0-0-0|

G|---------------------------------------------------------------------------|
D|---------------------------------------------------------------------------|
A|--------------------------------------3-3-3-3-1-1-1-1-1-1-1-1-1-1-1-1-1-1-1|
D|0-0-0-0-0-0-0-0-0-0-0-0-0-0-0-0-0-0-0--------------------------------------|

G|---------------------------------------------------------------------------|
D|----------------------------------------10(h)---10----------7(h)---7-------|
A|---------------------------------------------------------------------------|
D|5(h)---5-5-3(h)-----3x-2-2-2-2-8(h)---8------------5(h)---5----------2-5-3-|

G|---------------------------------------------------------------------------|
D|---------------------------------------------------10(h)------------7(h)---|
A|-----------3(h)---3-----------------3-3-3-3--------------------------------|
D|2-0(h)---0----------5(h)---5(h)---5---------8(h)-----------5(h)---5--------|

G|---------------------------------------------------------------------------|
D|7-------------------------------------------------------------10(h)---10---|
A|-------------------3-3-3---------------------------------------------------|
D|--2-5-3-2-0(h)---0-------5(h)---5(h)---5-10-10-10-10-8(h)---8--------------|

G|---------------------------------------------------------------------------|
D|---------7(h)---7----------------------------------------------------------|
A|-----------------------------------3(h)---3-----------------3-3-3-3--------|
D|5(h)---5----------2-5-3-2-0(h)---0----------5(h)---5(h)---5---------8(h)---|

G|---------------------------------------------------------------------------|
D|10(h)------------7(h)---7--------------------------------------------------|
A|----------------------------------1(h)---1(h)---1-3(h)---------------------|
D|--------5(h)---5----------2-5-3-2------------------------------------------|

G|---------------------------------------------------------------------------|
D|---------------------------------------------------------------------------|
A|---------------------------------------------------------------------------|
D|0(h)-----------------------------------------------------------------------|



|(h) hold note
| /  slide up
| \  slide down
| h  hammer-on
| p  pull-off
| ~  vibrato
| +  harmonic
| x  Mute note
===============================================================================
Добавлено: 14.06.2016
Другие материалы по этой песне:
  • Аккорды и текст

Страница создана 14.06.2016
http://primanota.ru/earlyrise/wasteland-chords.htm
Привет, Гость.
Предлагаем пройти революционный курс по гитаре.
Подарок от PrimaNota.Ru, забирай!