PrimaNota.ru - самый крупный в мире бесплатный архив песенных текстов, аккордов, табулатур и нот


Early November - Scared To Lose - текст песни, таба, видео

Регистрация Запомнить меня
Войти через:  Facebook Google Twitter Vk Yandex Mail.ru

Early November - Scared To Lose - текст песни, таба, видео

Печатать
Просмотров: 97
(/) Slide Up  (\) Slide Down  (h) Hammer On  (p) Pull Off  (b) Bend (r) Release (v) Vibrato

E|----------------------------------------|----------------------------------------|-----
B|-----------------15--------------------O|-------8--------------------------------|-----
G|---------12--14------14--12--14b16--12--|--7h9-----9\7---------------------------|-----
D|--10\12---------------------------------|---------------9p7p5---------7b9--5--7--|-----
A|---------------------------------------O|----------------------7p6p5-------------|-----
E|----------------------------------------|----------------------------------------|-----



E|----------------------------------------|----------------------------------------|--
B|----------------------------------------|--------8--10--12--8--12b14p12------12--|--
G|-------------------------------7--5--4--|--------------------------------14------|--
D|---------------5---------------9--7--5--|--8--9-----10--12--9--------------------|--
A|--------3h5h7-----7p5p3-----3-----------|----------------------------------------|--
E|--14\6-------------------7--------------|----------------------------------------|--



E|----------------------------------|----------------------------------------|--
B|--------8--10--12--8---------5/8--|--------8--10--12--8--12b14p12------12--|--
G|----------------------4h5p4-------|--------------------------------14------|--
D|--8--9-----10--12--9--------------|--8--9-----10--12--9--------------------|--
A|----------------------------------|----------------------------------------|--
E|----------------------------------|----------------------------------------|--



E|---------10---------|---------------|--14b16p12----------------------------|--
B|--10h12--12--12p10--|--8---8--------|------------17--12--------------------|--
G|--------------------|--7h9p7--9\12--|--------------------14b16p12------12--|--
D|--------------------|---------------|------------------------------14------|--
A|--------------------|---------------|--------------------------------------|--
E|--------------------|---------------|--------------------------------------|--


http://www.guitartabcreator.com
Добавлено: 04.06.2013
Другие материалы по этой песне:
  • Аккорды и текст

Страница создана 30.04.2012
http://primanota.ru/early-november/scared-to-lose-chords.htm
Привет, Гость.
Предлагаем пройти революционный курс по гитаре.
Подарок от PrimaNota.Ru, забирай!