PrimaNota.ru - самый крупный в мире бесплатный архив песенных текстов, аккордов, табулатур и нот


Early November - My Lack Of Skill - текст песни, таба, видео

Регистрация Запомнить меня
Войти через:  Facebook Google Twitter Vk Yandex Mail.ru

Early November - My Lack Of Skill - текст песни, таба, видео

Печатать
Просмотров: 155
-------------------------------------------------------------------------------
                            MY LACK OF SKILL - The Early November
-------------------------------------------------------------------------------
Tabbed by: ohh shoot
Email: www.myspace.com/ohshoot_itserik

Tuning: Standard

if you've heard it, you should know it's on piano. both parts are here.

Intro/Verse
Guitar 1/LEFT HAND:

e|-----------------------------------------------------------------------------|
B|-----------------------------------------------------------------------------|
G|-2-2-2-2-3-3-3-3-5-5-5-5-7-7-7-7--9--9--9--9--9--9--9--9---------------------|
D|-3-3-3-3-5-5-5-5-7-7-7-7-8-8-8-8-10-10-10-10-11-11-11-11---------------------|
A|-----------------------------------------------------------------------------|
E|-----------------------------------------------------------------------------|

(continued)
e|-----------------------------|--------------------------------------------------|
B|-----------------------------|--------------------------------------------------|
G|-7-7-7-7-6-6-6-6-6-6-6-6----|----6------(play after 2nd time)-------------------|
D|-8-8-8-8-8-8-8-8-8-8-8-8----|----8---x16----------------------------------------|
A|-----------------------------|--------------------------------------------------|
E|-----------------------------|--------------------------------------------------|

Chorus
e|-----------------------------------------------------------------------------|
B|-----------------------------------------------------------------------------|
G|-2-2-2-2--9--9--9--9-7-7-7-7----6-6-6--6-6-6---------------------------------|
D|-3-3-3-3-10-10-10-10-8-8-8-8----8-8-8--8-8-8---------------------------------|
A|-----------------------------------------------------------------------------|
E|-----------------------------------------------------------------------------|

e|-----------------------------------------------------------------------------|
B|------------------------------------6~---------------------------------------|
G|-2-2-2-2--9--9--9--9-7-7-7-7---6~--------------------------------------------|
D|-3-3-3-3-10-10-10-10-8-8-8-8---8~--------------------------------------------|
A|-----------------------------------------------------------------------------|
E|-----------------------------------------------------------------------------|


Intro/Verse:
Guitar 2/RIGHT HAND:
x3
e|-1-0------0-1-3-3--3-1-0--1-0-------0-1-3--5-3--0-3-0-1-----------------------|
B|----3--1-3--------------------3--1-3------------------------------------------|
G|------------------------------------------------------------------------------|
D|------------------------------------------------------------------------------|
A|------------------------------------------------------------------------------|
E|------------------------------------------------------------------------------|

e|-------6-5----------------------------3~-1~----------------------------------|
B|-5-6-8----8-6~-6--5-6--5-6-5--6--5-6-------1~--------------------------------|
G|-----------------------------------------------3~--2~------------------------|
D|-----------------------------------------------------------------------------|
A|-----------------------------------------------------------------------------|
E|-----------------------------------------------------------------------------|

after third time play:
e|-------------------------|
B|-------------------------|
G|-------------------------|
D|--3~---------------------|
A|-------------------------|
E|-------------------------|

Chorus:
e|------1-0----3-1----3-3-3--3-3-3---------|
B|-1~------1~-----1~--1-1-1--1-1-1---------|
G|-----------------------------------------|
D|-----------------------------------------|
A|-----------------------------------------|
E|-----------------------------------------|

e|----1-0-----3-1-----3~---------|
B|-1~-----1~------1~-------------|
G|-------------------------------|
D|-------------------------------|
A|-------------------------------|
E|-------------------------------|
Добавлено: 31.10.2013
Другие материалы по этой песне:

Страница создана 29.03.2012
http://primanota.ru/early-november/my-lack-of-skill-chords.htm
Привет, Гость.
Предлагаем пройти революционный курс по гитаре.
Подарок от PrimaNota.Ru, забирай!