PrimaNota.ru - самый крупный в мире бесплатный архив песенных текстов, аккордов, табулатур и нот


Early November - Is It My Fault - текст песни, таба, видео

Регистрация Запомнить меня
Войти через:  Facebook Google Twitter Vk Yandex Mail.ru

Early November - Is It My Fault - текст песни, таба, видео

Печатать
Просмотров: 103
			     Is it my Fault - The Early November

Tabbed by: drawtheline
Email: xxsaddlexupxx@aim.com

Tuning: Eb Ab Db Gb Bb eb (half a step down)
the other tab on here is off by about a full step this is basically perfect.

   Intro/Verse
e|--------------------------------------------------------------------------|
B|--------------------------------------------------------------------------|
G|------------------5--5------4------5--------------------------------------|
D|---5h7-----5------5--5------4------5--------------------------------------|
A|---5h7-----5------3--3------2------3--------------------------------------|
E|---5-------3------3--3------2------3--------------------------------------|
   Chorus
e|--------------------------------------------------------------------------|
B|--------------------------------------------------------------------------|
G|--5-5-5-5-----------------------------------------------------------------|
D|--5-5-5-3----3-3-3-3------5-5-5---5-5---5-5-5-----------------------------|
A|--3-3-3-3----3-3-3-3------5-5-5---5-5---5-5-5-----------------------------|
E|-------------1-1-1-1------3-3-3---3-3---3-3-3-----------------------------|
   Bridge
e|--------------------------------------------------------------------------|
B|--------------------------------------------------------------------------|
G|---5----x8----------------------------------------------------------------|
D|---5-----------------5----x8----------------------------------------------|
A|---3-----------------5----------------------------------------------------|
E|---------------------3----------------------------------------------------|

Order: intro/verse
       chorus
       intro/verse
       chorus
       bridge
       chorus


| /  slide up
| \  slide down
| h  hammer-on
| p  pull-off
| ~  vibrato
| +  harmonic
| x  Mute note
Добавлено: 19.08.2013
Другие материалы по этой песне:
  • Аккорды и текст

Страница создана 05.03.2012
http://primanota.ru/early-november/is-it-my-fault-chords.htm
Привет, Гость.
Предлагаем пройти революционный курс по гитаре.
Подарок от PrimaNota.Ru, забирай!