PrimaNota.ru - самый крупный в мире бесплатный архив песенных текстов, аккордов, табулатур и нот


Early November - Frayed In Doubt - таба, видео

Регистрация Запомнить меня
Войти через:  Facebook Google Twitter Vk Yandex Mail.ru

Early November - Frayed In Doubt - таба, видео

Печатать
Просмотров: 127
Frayed in Doubt

Drop Db

 Intro
|------------------------------------------------|
|------------------------------------------------|
|--5-5-xxxx-5-5-xxxx-5-5-xxxx-5-5-5-5-5----------| X2
|--5-5-xxxx-5-5-xxxx-5-5-xxxx-4-4-4-5-4----------|
|--0-0-xxxx-0-0-xxxx-0-0-xxxx-0-0-0-0-0----------|
|-----------------------------0-0-0---0----------|

Verse

|------------------------------|
|------------------------------|
|--5-5--5-5--5-5-xx-5-5--------| X2
|--5-5--5-5--5-5-xx-4-4--------|
|--0-0--0-0--0-0-xx-0-0--------|
|-------------------0-0--------|

|------------------------------------------------|
|------------------------------------------------|
|--5-5-xxxx-5-5-xxxx-5-5-xxxx-5-5-5-5-5----------| X2
|--5-5-xxxx-5-5-xxxx-5-5-xxxx-4-4-4-5-4----------|
|--0-0-xxxx-0-0-xxxx-0-0-xxxx-0-0-0-0-0----------|
|-----------------------------0-0-0---0----------|

Pre-Chorus

|------------------------|
|------------------------|
|------------------------|
|---2----------4---------|
|---2-let-it---0--ring-- |
|---2----------0---------|


Chorus
(Chords Only, Not Pattern)

|------------------------|
|-1---3--2--1------------|
|-2---4--3--2------2-----|
|-2---4--3--2---2--4-----|
|-0---2--1--0---2--0-----|
|---------------2--0-----|

Pre Verse

|------------------------------------------------|
|------------------------------------------------|
|--5-5-xxxx-5-5-xxxx-5-5-xxxx-5-5-5-5-5----------| X2
|--5-5-xxxx-5-5-xxxx-5-5-xxxx-4-4-4-5-4----------|
|--0-0-xxxx-0-0-xxxx-0-0-xxxx-0-0-0-0-0----------|
|-----------------------------0-0-0---0----------|


Verse

|------------------------------|
|------------------------------|
|--5-5--5-5--5-5-xx-5-5--------| X2
|--5-5--5-5--5-5-xx-4-4--------|
|--0-0--0-0--0-0-xx-0-0--------|
|-------------------0-0--------|

|------------------------------------------------|
|------------------------------------------------|
|--5-5-xxxx-5-5-xxxx-5-5-xxxx-5-5-5-5-5----------| X2
|--5-5-xxxx-5-5-xxxx-5-5-xxxx-4-4-4-5-4----------|
|--0-0-xxxx-0-0-xxxx-0-0-xxxx-0-0-0-0-0----------|
|-----------------------------0-0-0---0----------|

Pre-Chorus

|------------------------|
|------------------------|
|------------------------|
|---2----------4---------|
|---2-let-it---0--ring-- |
|---2----------0---------|

Chorus
(Chords Only, Not Pattern)

|------------------------|
|-1---3--2--1------------|
|-2---4--3--2------2-----|
|-2---4--3--2---2--4-----|
|-0---2--1--0---2--0-----|
|---------------2--0-----|

Bridge

|------------------------|
|----3---------3---------|
|------5-X10-----2-X10---| X4
|---5---------4----------|
|------------------------|
|------------------------|

Pre-Chorus

|--------------|
|--------------|
|--------------|
|---2----4-----|
|---2----0-----|
|---2----0-----|

Chorus
(Chords Only, Not Pattern)

|------------------------|
|-1---3--2--1------------|
|-2---4--3--2------2-----|
|-2---4--3--2---2--4-----|
|-0---2--1--0---2--0-----|
|---------------2--0-----|

Ending

|------------------------------------------------|
|------------------------------------------------|
|--5-5-xxxx-5-5-xxxx-5-5-xxxx-5-5-5-5-5----------| 
|--5-5-xxxx-5-5-xxxx-5-5-xxxx-4-4-4-5-4----------|
|--0-0-xxxx-0-0-xxxx-0-0-xxxx-0-0-0-0-0----------|
|-----------------------------0-0-0---0----------|

|-------------------------------|
|-------------------------------|
|--5-5-xxxx-5-5-xxxx-5-5-xx-5-5-|
|--5-5-xxxx-5-5-xxxx-5-5-xx-4-4-|
|--0-0-xxxx-0-0-xxxx-0-0-xx-0-0-|
|---------------------------0-0-|
Добавлено: 09.08.2013
Другие материалы по этой песне:
  • Аккорды и текст

Страница создана 09.08.2013
http://primanota.ru/early-november/frayed-in-doubt-chords.htm
Привет, Гость.
Предлагаем пройти революционный курс по гитаре.
Подарок от PrimaNota.Ru, забирай!