PrimaNota.ru - самый крупный в мире бесплатный архив песенных текстов, аккордов, табулатур и нот


Early November - Call Off The Bells - таба, видео

Регистрация Запомнить меня
Войти через:  Facebook Google Twitter Vk Yandex Mail.ru

Early November - Call Off The Bells - таба, видео

Печатать
Просмотров: 124
Call Off The Bells
Half Step Down

Intro/Verse
|----------3------------------------------------------|
|----------3------------------0---8/10/8----3----3--3-|
|--7/9/7/5-5----7/9/7/5--4---4----7/9/-7---4-4---4--4-| X3
|--7/9/7/5-5----7/9/7/5--5--5-------------5---5--5--5-|
|----------3-------------5-5-------------5-----3-5--5-|
|----------3--------------------0---------------------|

Chorus

|--3----7--5--3---5--5--|
|--0----7--5--5---8--7--|
|--0----7--5--5---7--7--| X2
|--0----7-----5---7--7--|
|--2----5-----3---5--5--|
|--3--------------------|

Verse
|----------3------------------------------------------|
|----------3------------------0---8/10/8----3----3--3-|
|--7/9/7-5-5----7/9/7/5--4---4----7/9/-7---4-4---4--4-| X3
|--7/9/7/5-5----7/9/7/5--5--5-------------5---5--5--5-|
|----------3-------------5-5-------------5-----3-5--5-|
|----------3--------------------0---------------------|

Chorus

|--1----7--5--3---5--5--|
|--0----7--5--5---8--7--|
|--0----7--5--5---7--7--| X2
|--0----7-----5---7--7--|
|--2----5-----3---5--5--|
|--3--------------------|


Ending
Gets progressively louder 

|--0---0-------------|
|--0---1-------8-7---|
|--2---0-------7-7---| X5
|--2---2---2---7-7---|
|--0---3---2---5-5---|
|----------0---------|

----------------------------------------|
----------------0---8/10/8----3----3--3-|
--7/9/7/5--4---4----7/9/-7---4-4---4--4-| let it ring!
--7/9/7/5--5--5-------------5---5--5--5-|
-----------5-5-------------5-----3-5--5-|
------------------0---------------------|
Добавлено: 14.10.2013
Другие материалы по этой песне:
  • Аккорды и текст

Страница создана 06.08.2013
http://primanota.ru/early-november/call-off-the-bells-chords.htm
Привет, Гость.
Предлагаем пройти революционный курс по гитаре.
Подарок от PrimaNota.Ru, забирай!