PrimaNota.ru - самый крупный в мире бесплатный архив песенных текстов, аккордов, табулатур и нот


Earl Klugh - You Should Know By Now - таба, видео

Регистрация Запомнить меня
Войти через:  Facebook Google Twitter Vk Yandex Mail.ru

Earl Klugh - You Should Know By Now - таба, видео

Печатать
Просмотров: 108
*******************************************************
*******************************************************
This transcription is made by Paul Magpantay. Email  
me at polmagp@yahoo.com for comments or suggestions. 
One of my all-time-favorite acoustic songs. Sung by  
Angela Bofill originally. Given great justice by Earl
Klugh. There's a part that's not correct, the Esus-E 
part where Earl marks it with his
signature-fingerstyle-technique. I just had to put
something in there (hehe). Anyways, the idea is, play
Esus then E Have fun.                         
*******************************************************
*******************************************************
                                                      
   
E||--10----------10--------------|--7--------7-----------|
B||------------------------------|-----------------------|
G||--11------11------11----------|--7-----7-----7--------|
D||--12--12--------------12------|--9--9-----------------|
A||------------------------------|-----------------------|
E||------------------------------|-----------------------|


                                                      
--5-----------------------|--5-----------------------|
-----------0-----------0--|-----------0-----------0--|
--------2-----2-----2-----|--------2-----2-----2-----|
-----4-----------4--------|-----4-----------4--------|
--0-----------------------|--0-----------------------|
--------------------------|--------------------------|


                                                    
--0--------0----------0--|--0--------0----------0--|
--------2----------2-----|--------2----------2-----|
-----4----------4--------|-----4----------4--------|
-------------------------|-------------------------|
--0----------------------|--0----------------------|
-------------------------|-------------------------|


                                                    
--0--------0----------0--|--0--------0----------0--|
--------2----------2-----|--------2----------2-----|
-----4----------4--------|-----4----------4--------|
-------------------------|-------------------------|
--0----------------------|--0----------------------|
-------------------------|-------------------------|


                                                   
-----------10----7/9------|--------------0--------|
--------5--------------5--|-----------0-----------|
--6--7--------------------|--------6--------------|
--7-----------------------|-----7-----------------|
--0-----------------------|--0--------------------|
--------------------------|-----------------------|


                                                  
-----------9-------------|-----------------------|
--------5---------2--3/5-|--3-----------3--------|
--6--7-------------------|-----------2-----------|
--7----------------------|--------4--------------|
--0----------------------|-----0-----------------|
-------------------------|-----------------------|


                                                     
-----------7----7/9---5--|--------------------------|
-------------------------|----------------2--5/7-5--|
--4--6--7----------------|-----------2--------------|
--6----------------------|--------2-----------------|
--0----------------------|-----4--------------------|
-------------------------|--2-----------------------|


                                                   
--------------4--------|--0------10--7/9---5/7----|
-----------5--5--------|--3--------------------7--|
--------4-----4--------|--4-----------------------|
-----6--------6--------|--5-----------------------|
--4-----------4--------|--0-----------------------|
-----------------------|--------------------------|


                                                   
--5-----------5--5--5--7--|--5--4----5/7-5--------|
-----------7--------------|-----2-----------------|
--------7-----------------|-----2-----------------|
-----0--------------------|-----------------------|
--------------------------|-----------------------|
--------------------------|-----2-----------------|


                                                      
-----5--5--5----5--5h7-5--|--4----5/7-5--------------|
-----7--7--7--------------|--2-------------2--5/7-5--|
-----7--------------------|--2-----------------------|
--0-----------------------|--------------------------|
--------------------------|--------------------------|
--------------------------|--2-----------------------|


                                                 
----------2-----------|------10--7/9---5/7---5--|
-------------3--------|-------------------------|
----------2-----2-----|-------------------------|
----------------------|-------------------------|
----------------------|-------------------------|
-------------------0--|-------------------------|


                                                      
--------------------------|--------------------------|
-----------0-----------0--|-----------0-----------0--|
--------2-----2-----2-----|--------2-----2-----2-----|
-----4-----------4--------|-----4-----------4--------|
--0-----------------------|--0-----------------------|
--------------------------|--------------------------|


                                                    
--------------12----12/14---12--|------------------|
--9---10--12--------------------|------------------|
--9-----------------------------|------------------|
--9-----------------------------|------------------|
--11----------------------------|------------------|
--9-----------------------------|------------------|


                                                
--2--4--5--10------9--10h9-|--7----------------|
--3------------------------|-------------------|
--2------------------------|-------------------|
--0------------------------|-------------------|
---------------------------|-------------------|
---------------------------|-------------------|


                                                
--0--5--7--10------9--5/7-|--5-----------------|
--3-----------------------|---------------5----|
--4-----------------------|---------------4----|
--5-----------------------|---------------6----|
--0-----------------------|---------------4----|
--------------------------|--------------------|


                         
-------7-----------7----|
--7-------10--7---------|
--7---------------------|
--7---------------------|
--9---------------------|
--7---------------------|


                                       
-------0-----------0------------------|
--5------0-----------0----------------|
-----------2-----------2--------------|
-------------2-----------2------------|
---------------2-----------2----------|
-----------------0-----------0-0------|


                                            
----------0-----------0--------------------|
------------0-----------0------------------|
--------1-----1-----------1----------------|
------2---------2-----------2--------------|
----2-------------2-----------2------------|
--0-----------------0-----------0-0--------|


                                                      
 
----------------7/9-------|----------------------------|
--7----9--10----------12--|---------9--10--------10----|
--7----9--11--------------|---------9------------9-----|
--0-----------------------|-------------------7--------|
--------------------------|-----11---------9-----------|
--------------------------|--9-------------------------|


                                                   
-----------------------|--------------------------|
--9----9h10-7----------|--7-----------------7h9---|
--9---------7----------|--7--------7--------7-----|
--0--------------------|--------7--------7--------|
-----------------------|-----9--------9-----------|
-----------------------|--7-----------------------|


                                       
-------0-----------0------------------|
--5------0-----------0----------------|
-----------2-----------2--------------|
-------------2-----------2------------|
---------------2-----------2----------|
-----------------0-----------0-0------|


                                             
----------0-----------0--------------------||
------------0-----------0------------------||
--------1-----1-----------1----------------||
------2---------2-----------2--------------||
----2-------------2-----------2------------||
--0-----------------0-----------0-0--------||




__________________________________
     
Добавлено: 10.11.2013
Другие материалы по этой песне:
  • Аккорды и текст

Страница создана 10.11.2013
http://primanota.ru/earl-klugh/you-should-know-by-now-chords.htm
Привет, Гость.
Предлагаем пройти революционный курс по гитаре.
Подарок от PrimaNota.Ru, забирай!