PrimaNota.ru - самый крупный в мире бесплатный архив песенных текстов, аккордов, табулатур и нот


Earl Klugh - This Time - таба, видео

Регистрация Запомнить меня
Войти через:  Facebook Google Twitter Vk Yandex Mail.ru

Earl Klugh - This Time - таба, видео

Печатать
Просмотров: 263
-------------------------------------------------------------------------------
                             This Time- Earl Klugh
-------------------------------------------------------------------------------
{I, Rockincognito, merely tabbed the song, but didn't write it. All credit for writing 
song is due to Mr. Earl Klugh}

Tabbed by: Rockincognito
Email:

Tuning: Standard
Its in the key of E Major, so feel free to make your own solo.

Intro(second ending is the chord on the far right)
e|-7----7--7----7----7-/-9----------7---------------------------|---------------|
B|-7----7--9----9----8-/-10----7----7-----7-7-7-----------------|---------------|
G|-8----8--8----8----7-/-9-----8h9--8-----8-9-8-6--6--6—-6h8-4--|---9-----------|
D|----------------------------------------------7--7--7--7---4--|---9-----------|
A|--------------------------------------------------------------|---------------|
E|-7-------7------------------------7-----7-----7---------------|---------------|

Part A (this one goes in between the other parts)
e|---------------------------0---------------------------------------0-----------|
B|--------------0-2---0-------0---2---0------------------0-2-0--------0---2---0--|
G|----------------2---1---------1-2---1--------------------2-1----------1-2---1--|
D|-----------2---------------------------------------2---------------------------|
A|---------2---------------------------------------2-----------------------------|
E|-0---------------------0-----------------0---------------------0---------------|

Part B
e|-12---12-11---------------------------------------------------------------|
B|--------------12----12h14--12--------12-9h10-9----------------------------|
G|-13---13-13---13-12-13-----13-----------9-------9-----------9-------------|
D|---------------------------14-----------9-------9--9---11-----------------|
A|---------------------------------------------------9---11-----------------|
E|--------------------------------------------------------------------------|

e|-----------------------------------------|
B|-----------------------------------------|
G|------9-----------9------------9---------|
D|---11---9-------9---7--------9-----------|
A|--------11----------7--------------------|
E|-----------------------------------------|

Part C
e|--9---9-7---5-4h5p4—-5/7---5--4-2-2---0-4---------------------------|
B|------------------------------------------------9---7---------------|
G|--9---9-8---6-6------6/8---6--6-4-4---4-6-------9----9--8-9p8--6----|
D|------------------------------------------------9-------------------|
A|------------------------------------------------7-------------------|
E|--------------------------------------------------------------------|

e|--9---9-7---5-4h5p4—-5/7---5--4-2-2---0---------------4---------|
B|----------------------------------------0---------0-4-5---------|
G|--9---9-8---6-6------6/8---6--6-4-4---4---------2---------------|
D|----------------------------------------4-----------------------|
A|----------------------------------------------------------------|
E|----------------------------------------------------------------|

Song Structure:
Intro
Part A
Intro
Part A
Part B
Part A
Part B
Part A
Part C
Part A
Part B
Part A
Solo
Part C
Part A
Part B
Part A
Intro
Part A
Intro(slow and soft ending on E chord)

I believe the solo part is just an E chord being repeatedly played, or its just part A 
repeated, I'm sure either will do.


| /   slide up
| \   slide down
| h   hammer-on
| p   pull-off
| ~   vibrato
| +   harmonic
| x   Mute note
| b   Bend
| pb  Pre-bend
| br  Bend release
| pbr Pre-bend release
| brb Bend release bend

************************************
Добавлено: 19.07.2012
Вам также может быть интересно:
Другие материалы по этой песне:
  • Аккорды и текст

Страница создана 19.07.2012
http://primanota.ru/earl-klugh/this-time-chords.htm
Привет, Гость.
Предлагаем пройти революционный курс по гитаре.
Подарок от PrimaNota.Ru, забирай!