PrimaNota.ru - самый крупный в мире бесплатный архив песенных текстов, аккордов, табулатур и нот


Earl Greyhound - Good - таба, видео

Регистрация Запомнить меня
Войти через:  Facebook Google Twitter Vk Yandex Mail.ru

Earl Greyhound - Good - таба, видео

Печатать
Просмотров: 65
"Good"
by Earl Greyhound

Tabbed by Jason Biggs
Not the "actor"


Standard tuning EADGBe

Andante


Intro:

Fingerpicked

e|-7-----9-----|-7-----7-----|-7---9-7-----|-10-9-7------|
B|---9---------|---7---------|---7---------|--------6----|
G|-----9-------|-8---8-------|-7---7-------|-6-----------|
D|-------------|-------------|-------------|-------------|
A|-------------|-------------|-------------|-------------|
E|-------------|-------------|-------------|-------------|

e|-5---7-5-----|-3---5-3-----|---5---5-----|---5---5-----|
B|---5---------|---3---------|---5---5-----|---5---5-----|
G|-5---4-------|-3---2-------|-2---3-------|-2---2-------|
D|-------------|-------------|-2---3-------|-2---2-------|
A|-------------|-------------|-0-----------|-0---0-------|
E|-------------|-------------|-------------|-------------|



e|-7-----9-----|-7-----7-----|-7---9-7-----|-10-9-7------|
B|---9---------|---7---------|---7---------|--------6----|
G|-----9-------|-8---8-------|-7---7-------|-6-----------|
D|-------------|-------------|-------------|-------------|
A|-------------|-------------|-------------|-------------|
E|-------------|-------------|-------------|-------------|

e|-5---5h7p5---|-4-----4-----|-2---4-------|-5---7-------|
B|---5-------5-|---5---------|---0---0-----|---0----0----|
G|-6---5-------|-4---4-------|-------------|-6---8-------|
D|-------------|-------------|-------------|-------------|
A|-------------|-------------|-------------|-------------|
E|-------------|-------------|-------------|-------------|



e|-------------|-------------|---2---4-----|---5---7-----|
B|---7----9----|---10---12---|---2---4-----|---5---7-----|
G|---6----8----|---9----11---|---2---4-----|---6---8-----|
D|-4----6------|-7----9------|-4---6-------|-7---9-------|
A|-------------|-------------|-4---6-------|-7---9-------|
E|-------------|-------------|-2---4-------|-5---7-------|
                             x2---------------------------


Verse:

e|-----0-------|-2---2-------|-2-2-2-2-----|-2----2------|
B|-----0-------|-4---4-------|-4-2-4-5-----|-5----5------|
G|-----3-------|-2---2-------|-2-2-2-2-----|-2----2------|
D|-2---2-------|-4---4-------|-4-4-4-4-----|-4----4------|
A|-2---2-------|-2---2-------|-2-2-2-2-----|-2----2------|
E|-0---0-------|-------------|-------------|-------------|
x3-------------



Bridge:

Palm-muted

e|-------------|-------------|-------------|-------------|
B|-------------|-------------|-------------|-------------|
G|-------------|-------------|-4-4-4-4-----|-4-4-4-4-----|
D|-4-4-4-4-----|-4-4-4-4-----|-4-4-4-4-----|-4-4-4-4-----|
A|-4-4-4-4-----|-4-4-4-4-----|-2-2-2-2-----|-2-2-2-2-----|
E|-2-2-2-2-----|-2-2-2-2-----|-------------|-------------|



Chorus:

e|-------------|-------------|-2---2-------|-0---0-------|
B|-2---2-------|-2---2-------|-2---2-------|-0---0-------|
G|-2---2-------|-2---2-------|-2---2-------|-1---1-------|
D|-2---2-------|-2---2-------|-4---4-------|-2---2-------|
A|-0---0-------|-x---x-------|-4---4-------|-2---2-------|
E|-------------|-4~~~4-------|-2---2-------|-0---0-------|


e|-------------|-------------|-2---2-------|-------------|-------------|
B|-3---3-------|-3---3-------|-x---x-------|-3---3-------|-3---2-------|
G|-2---2-------|-2---2-------|-4---4-------|-0---0-------|-0---2-------|
D|-0---0-------|-0---0-------|-4---4-------|-0---0-------|-0---2-------|
A|-0---0-------|-4~~~4-------|-2---2-------|-2---2-------|-2---0-------|
E|-------------|-------------|-------------|-3---3-------|-3-----------|
                                            -1st time---- -2nd time----



Fill 1:

(Chorus effect)

e|-------------|-------------|-------------|-------------|
B|-------------|-------------|-------------|-------------|
G|---9-8-------|-9-----------|-------------|-------------|
D|-------9-----|---9----6----|-9-9-9-------|-6-----------|
A|-------------|-------------|-------9-----|----6/9------|
E|-0-----------|-------------|-------------|-------------|
Let "E" ring/drone

e|-------------|-------------|
B|-------------|-------------|
G|-------------|-------------|
D|-------------|-------------|
A|-9\6------6--|-7b9r7b9r7---|
E|-------------|-------------|


Verse (Palm-mute open "E")

Bridge

Chorus


Fill 2:

e|-0-0-0-0-----|-0-0-0-0-----|-0-0-0-0-----|-0-0-0-0-----|
B|-5-5-5-5-----|-5-5-5-5-----|-5-5-5-5-----|-5b6b6b6-----|
G|-------------|-------------|-------------|-------------|
D|-------------|-------------|-------------|-------------|
A|-------------|-------------|-------------|-------------|
E|-------------|-------------|-------------|-------------|



Outro:

Fingerpicked

e|-7-----9-----|-7-----7-----|-7---9-7-----|-10-9-7------|
B|---9---------|---7---------|---7---------|--------6----|
G|-----9-------|-8---8-------|-7---7-------|-6-----------|
D|-------------|-------------|-------------|-------------|
A|-------------|-------------|-------------|-------------|
E|-------------|-------------|-------------|-------------|

e|-5-----5-----|-5---7-5-----|-4-----4-----|-0---2-------|
B|---5---------|---5---------|---5---------|---0---0-----|
G|-6---6-------|-5---5-------|-4---4-------|-------------|
D|-------------|-------------|-------------|-------------|
A|-------------|-------------|-------------|-------------|
E|-------------|-------------|-------------|-------------|

x4


Solo:

1 2 3 4 shown above for reference to rhythm

      1    2        3    4    1       2    3     4
e|--------------------------|--------------------------|
B|--------------------------|---------9-10-11-12b13----|
G|--9-11-9-11b13r11b13r11---|---11b13------------------|
D|--------------------------|--------------------------|
A|--------------------------|--------------------------|
E|--------------------------|--------------------------|

   1   2      3   4           1   2  3       4
e|--------------------------|--------------------------|
B|--------------------------|--------12b14-------------|
G|-9------11b13---r11-------|---9~~~-------------------|
D|-----11-------------------|--------------------------|
A|--------------------------|--------------------------|
E|--------------------------|--------------------------|

   1      2    3      4       1    2        3   4  
e|--------------------------|--------------------------|
B|-b14-b14-b14-b14-r12------|--------------------------|
G|----------------------9---|------11b13p9--11--9-11---|
D|--------------------------|----11-------11--11-------|
A|--------------------------|--------------------------|
E|--------------------------|--------------------------|

   1     2    3   4           1     2   3    4
e|--------------------------|--------------------------|
B|--------------------------|-12----10--9b11r9b11------|
G|-11-9----11-9~~~11-9------|-11b13-11--9b11r9b11------|
D|-------11-----------------|--------------------------|
A|--------------------------|--------------------------|
E|--------------------------|--------------------------|

   1   2   3   4              1   2    3      4
e|--------------------------|--------------------------|
B|-10--9--------------------|--------------------------|
G|-11--9--------------------|--------9-11p9---9-11-----|
D|---------9~~~~------------|---9-11-------11----------|
A|--------------------------|--------------------------|
E|--------------------------|--------------------------|

   1       2       3   4          1       2   3       4
e|------------------------------|------------------------------|
B|-12h14p12------------12h14p12-|-------------12h14p12---------|
G|---------11h13p11--11---------|-11h13p11--11--------11h13p11-|
D|-----------------14-----------|---------14-------------------|
A|------------------------------|------------------------------|
E|------------------------------|------------------------------|

   1     2   3   4             1   2   3   4
e|--------------------------|--------------------------|
B|-12/14-14--14--14-----/---|--18------18--------------|
G|---------13--13--13---/---|------16------16----------|
D|--------------------------|--------------------------|
A|--------------------------|--------------------------|
E|--------------------------|--------------------------|


The end:

e|-------------|-7-----------|
B|-10-----10---|-8-----------|
G|----9--------|-9-----------|
D|------9------|-9-----------|
A|-------------|-0-----------|
E|-------------|-------------|
Добавлено: 08.07.2013
Вам также может быть интересно:
Другие материалы по этой песне:
  • Аккорды и текст

Страница создана 08.07.2013
http://primanota.ru/earl-greyhound/good-chords.htm
Привет, Гость.
Предлагаем пройти революционный курс по гитаре.
Подарок от PrimaNota.Ru, забирай!