PrimaNota.ru - самый крупный в мире бесплатный архив песенных текстов, аккордов, табулатур и нот


Eagulls - Tough Luck - таба, видео

Регистрация Запомнить меня
Войти через:  Facebook Google Twitter Vk Yandex Mail.ru

Eagulls - Tough Luck - таба, видео

Печатать
Просмотров: 101
Уроки эстрадного вокала в Санкт-Петербурге
-------------------------------------------------------------------------------
                             TOUGH LUCK - EAGULLS
-------------------------------------------------------------------------------
Tabbed by:
E-mail:

Tuning:EADGBE

(RIFF1)

e|---------------------------------------------------------------------------|
B|--9------------------------------------------------------------------------|
G|--9---------11---------7--------11-----------------------------------------| X3  
D|--9---X8----11---X8----7---X8---11---X8------------------------------------|
A|--7---------9----------5--------9------------------------------------------|
E|---------------------------------------------------------------------------|

(RIFF2)

e|---------------------------------------------------------------------------|
B|---------------------------------------------------------------------------|
G|---------------------------------------------------------------------------|
D|-------------0-0-0-------X2------------------------------------------------|
A|---1-1---0-0--0-0--0-0-0---------------------------------------------------|
E|--0-0-0-1-1-1-----1-1-1----------------------------------------------------|
  

(RIFF3)

e|---------------------------------------------------------------------------|
B|---------------------------------------------------------------------------|
G|--9-9-9-9-9-9-9-9-11-11-11-11-11-11-11-11-14-14-14-14-14-14-14-14----------|
D|--7-7-7-7-7-7-7-7-9--9--9--9--9--9--9--9--12-12-12-12-12-12-12-12----------|
A|---------------------------------------------------------------------------|
E|---------------------------------------------------------------------------|

e|-----------|
B|--12-14-12-| 
G|--14-14-14-| X2  
D|-----------|
A|-----------|
E|-----------|

(RIFF4)

e|---------------------------------------------------------------------------|
B|---------------------------------------------------------------------------|
G|--10-10-10-10-10-11-10-\-8-8-8-8-8-9-8-/-13-13-\-6-6-6-6-6-6-6-6-----------| X4 
D|--11-11-11-11-11-11-11-\-9-9-9-9-9-9-9-/-14-14-\-7-7-7-7-7-7-7-7-----------|
A|---------------------------------------------------------------------------|
E|---------------------------------------------------------------------------|


RIFF1
RIFF2
RIFF1
RIFF3
RIFF4
RIFF1
RIFF3
RIFF4
RIFF2
Добавлено: 09.11.2015
Другие материалы по этой песне:
  • Аккорды и текст

Страница создана 09.11.2015
http://primanota.ru/eagulls/tough-luck-chords.htm
Привет, Гость.
Предлагаем пройти революционный курс по гитаре.
Подарок от PrimaNota.Ru, забирай!