PrimaNota.ru - самый крупный в мире бесплатный архив песенных текстов, аккордов, табулатур и нот


Eagles - Teenage Jail - текст песни, таба, бас-таба, видео

Регистрация Запомнить меня
Войти через:  Facebook Google Twitter Vk Yandex Mail.ru

Eagles - Teenage Jail - текст песни, таба, бас-таба, видео

Печатать
Просмотров: 323
Уроки эстрадного вокала в Санкт-Петербурге
Авторы: J.D. Souther, Glenn Frey, Don Henley

TEENAGE JAIL

As recorded by Eagles
(From the 1979 Album THE LONG RUN)

Words & Music by Don Henley, GLenn Frey & J.D. Souther

Transcribed by Slowhand


Gtr I (E A D G B E) - 'Don Felder - Electric Guitar'
Gtr II (E A D G B E) - 'Joe Walsh - Electric Guitar'
Gtr III (E A D G B E) - 'Glenn Frey - Electric Guitar'
Gtr IV (E A D G B E) - 'Don Felder - Electric Guitar'


 Intro
  Q=40(16=s16)
  E5         A                   E5         A
 12/8
  Gtr I
     ~~~~~~                         ~~~~~~
  E  E +S  S S     +S  +E  S S   E  E +S  S S     +S  +E  S S
|----7-(7)-9-9b10==(9)r(9)-9--------7-(7)-9-9b10==(9)r(9)-9-----|
|----------------------------8b9----------------------------8b9-|
|-9------------------------------9------------------------------|
|---------------------------------------------------------------|
|---------------------------------------------------------------|
|---------------------------------------------------------------|
|
| Gtr II
|    ~~~~~~                         ~~~~~~
| E  E +S  S S     +S  +E  S S   E  E +S  S S     +S  +E  S S
|---------------------------------------------------------------|
|---------------------------------------------------------------|
|---------------------------------------------------------------|
|---------------------------------------------------------------|
|----2-(2)-4-4b5===(4)r(4)-4--------2-(2)-4-4b5===(4)r(4)-4-----|
|-0--------------------------3b4-0--------------------------3b4-|
|
| Gtr III
| Q.         Q.                  Q.         Q.
|---------------------------------------------------------------|
|------------2------------------------------2-------------------|
|------------2------------------------------2-------------------|
|-2----------2-------------------2----------2-------------------|
|-2----------0-------------------2----------0-------------------|
|-0------------------------------0------------------------------|


  E5                    G5E5
     ~~~~~~             ~~~~~
  E  E +S  S  E     +E  E H.
|----7-(7)----------------------||
|------------10b11r(10)-8-------||
|-9--------9--------------9-----||
|-------------------------------||
|-------------------------------||
|-------------------------------||
|
|    ~~~~~~             ~~~~~
| E  E +S  S  E     +E  E H.
|-------------------------------||
|-------------------------------||
|-------------------------------||
|-------------------------------||
|----2-(2)----------------------||
|-0--------0--5b6r==(5)-3-0-----||
|
| Q.          E     +E  E H.
|-------------------------------||
|-----------------------3-------||
|-----------------------0-------||
|-2---------------------0-2-----||
|-2-----------------------2-----||
|-0-----------5b6r==(5)-3-0-----||


   1st & 2nd Verses
    E5          A                         E5          A
       ~~~~~~                                ~~~~~~
    E  E +S   S  S      +S   +E   S  S    E  E +S   S  S      +S   +E   S  S
||------------------------------------------------------------------------------|
||o-----------------------------------------------------------------------------|
||------------------------------------------------------------------------------|
||-----9-(9)-11-11b12==(11)r(11)-11----------9-(9)-11-11b12==(11)r(11)-11-------|
||o-7-------------------------------10b11-7-------------------------------10b11-|
||------------------------------------------------------------------------------|
|
|      ~~~~~~                                ~~~~~~
|   E  E +S   S  S      +S   +E   S  S    E  E +S   S  S      +S   +E   S  S
||------------------------------------------------------------------------------|
||o-----------------------------------------------------------------------------|
||------------------------------------------------------------------------------|
||------------------------------------------------------------------------------|
||o----2-(2)--4--4b5====(4)r=(4)--4----------2-(2)--4--4b5====(4)r=(4)--4-------|
||--0--------------------------------3b4--0--------------------------------3b4--|
|
|   Q.           Q.                       Q.           Q.
||------------------------------------------------------------------------------|
||o--------------2-------------------------------------2------------------------|
||---------------2-------------------------------------2------------------------|
||--2------------2------------------------2------------2------------------------|
||o-2------------0------------------------2------------0------------------------|
||--0-------------------------------------0-------------------------------------|


  E5                 G5 E5
     ~~~~~~           ~~~~~
  E  E +S  S E   +E   E H.
|-----------------------------|
|-----------------------------|
|-----------------------------|
|----9-(9)---7b8r(7)----------|
|-7--------7---------10-7-----|
|-----------------------------|
|
|    ~~~~~~           ~~~~~
| E  E +S  S E   +E   E H.
|-----------------------------|
|-----------------------------|
|-----------------------------|
|-----------------------------|
|----2-(2)--------------------|
|-0--------0-5b6r(5)--3-0-----|
|
| Q.         E   +E   E H.
|-----------------------------|
|---------------------3-------|
|---------------------0-------|
|-2-------------------0-2-----|
|-2---------------------2-----|
|-0----------5b6r(5)--3-0-----|


  E5          A                         E5          A
     ~~~~~~                                ~~~~~~
  E  E +S   S  S      +S   +E   S  S    E  E +S   S  S      +S   +E   S  S
|-----------------------------------------------------------------------------|
|-----------------------------------------------------------------------------|
|-----------------------------------------------------------------------------|
|----9-(9)-11-11b12==(11)r(11)-11----------9-(9)-11-11b12==(11)r(11)-11-------|
|-7-------------------------------10b11-7-------------------------------10b11-|
|-----------------------------------------------------------------------------|
|
|    ~~~~~~                                ~~~~~~
| E  E +S   S  S      +S   +E   S  S    E  E +S   S  S      +S   +E   S  S
|-----------------------------------------------------------------------------|
|-----------------------------------------------------------------------------|
|-----------------------------------------------------------------------------|
|-----------------------------------------------------------------------------|
|----2-(2)--4--4b5====(4)r=(4)--4----------2-(2)--4--4b5====(4)r=(4)--4-------|
|-0--------------------------------3b4--0--------------------------------3b4--|
|
| Q.           Q.                       Q.           Q.
|-----------------------------------------------------------------------------|
|--------------2-------------------------------------2------------------------|
|--------------2-------------------------------------2------------------------|
|-2------------2------------------------2------------2------------------------|
|-2------------0------------------------2------------0------------------------|
|-0-------------------------------------0-------------------------------------|


  E5                 G5 E5
     ~~~~~~           ~~~~~
  E  E +S  S E   +E   E H.
|-----------------------------||
|-----------------------------||
|-----------------------------||
|----9-(9)---7b8r(7)----------||
|-7--------7---------10-7-----||
|-----------------------------||
|
|    ~~~~~~           ~~~~~
| E  E +S  S E   +E   E H.
|-----------------------------||
|-----------------------------||
|-----------------------------||
|-----------------------------||
|----2-(2)--------------------||
|-0--------0-5b6r(5)--3-0-----||
|
| Q.         E   +E   E H.
|-----------------------------||
|---------------------3-------||
|---------------------0-------||
|-2-------------------0-2-----||
|-2---------------------2-----||
|-0----------5b6r(5)--3-0-----||


 Chorus
  A    G5   E5          A    G5   E5
  Gtr III
  Q.   Q.   Q.   Q.     Q.   Q.   Q.   Q.
|---------------------|---------------------|
|-2----3--------------|-2----3--------------|
|-2----0--------------|-2----0--------------|
|-2----0----2---------|-2----0----2---------|
|-0---------2---------|-0---------2---------|
|------3----0---------|------3----0---------|


                           1.
  A    G5   E5              A    G5   E5
  Gtr I
  H.        Q.    S  S Q    W
|----------------16\------|----------------------||
|----------------17\------|---------------------o||
|----------------16\------|----------------------||
|-------------------------|----------------------||
|-------------------------|---------------------o||
|-------------------------|----------------------||
|
| Gtr II
| H.        Q.    S  S Q    W
|----------------16\------|----------------------||
|----------------17\------|---------------------o||
|----------------16\------|----------------------||
|-------------------------|----------------------||
|-------------------------|---------------------o||
|-------------------------|----------------------||
|
| Gtr III
| Q.   Q.   Q.    Q.        Q.   Q.   Q.   Q.
|-------------------------|----------------------||
|-2----3------------------|-2----3--------------o||
|-2----0------------------|-2----0---------------||
|-2----0----2-------------|-2----0----2----------||
|-0---------2-------------|-0---------2---------o||
|------3----0-------------|------3----0----------||


 2.
  A    G5   E5
     Gtr IV
                     |-3--|
  H.        Q.   Q   S  S S
|----------------------------||
|----------------------------||
|-------------------------9--||
|--------------------9-12----||
|----------------------------||
|----------------------------||
|
| W
|----------------------------||
|----------------------------||
|----------------------------||
|----------------------------||
|----------------------------||
|----------------------------||
|
| Q.   Q.   Q.   Q.
|----------------------------||
|-2----3---------------------||
|-2----0---------------------||
|-2----0----2----------------||
|-0---------2----------------||
|------3----0----------------||


 Guitar Solo
  N.C.
     ~~~~~~~                                         ~~~~~~~~~~~~~~
                                     |----3----|                                    |--3---|  |-------3-------|
   T S. +E.     +S   Q               S  S      S  T  S.  +S   +S    E    E          S   S  S  T     T  S      s
|--------------------------------------12-----14-15p12--(12)-(12)\-----------------12---------------------------|
|----------------------------------/14-------------------------------------------------12-15-15b17-15p12--------|
|-12p9--(9)-----(9)\-----------------------------------------------------------------------------------------14-|
|---------------------------------------------------------------------------------------------------------------|
|---------------------------------------------------------------------------------------------------------------|
|---------------------------------------------------------------------------------------------------------------|
|
| Gtr I
|        ~~~~~~~                                          ~~~~~~~~~~~~~
|  E     E  +S   S   S     +S  +E    S    S       E       E        +S  S S     +S  +E         S          S
|--------7--(7)--9---9b10==(9)r(9)---9--------------------7--------(7)-9-9b10==(9)r(9)--------9-----------------|
|-----------------------------------------8b9------------------------------------------------------------8b9----|
|--9----------------------------------------------9-------------------------------------------------------------|
|---------------------------------------------------------------------------------------------------------------|
|---------------------------------------------------------------------------------------------------------------|
|---------------------------------------------------------------------------------------------------------------|
|
| Gtr II
|        ~~~~~~~                                          ~~~~~~~~~~~~~
|  E     E  +S   S   S     +S  +E    S    S       E       E        +S  S S     +S  +E         S          S
|---------------------------------------------------------------------------------------------------------------|
|---------------------------------------------------------------------------------------------------------------|
|---------------------------------------------------------------------------------------------------------------|
|---------------------------------------------------------------------------------------------------------------|
|--------2--(2)--4---4b5===(4)r(4)---4--------------------2--------(2)-4-4b5===(4)r(4)--------4-----------------|
|--0--------------------------------------3b4-----0------------------------------------------------------3b4----|


      ~~~
          |3-|  |----3-----|  |----------3-----------|     |------3-------|          |-----------3-----------|   |-----3-----|      |---3----|  |----3----|
   T  S.  E  S  S     S    S  E     S      S   s     s     T      +T   S  s  a      +E   a      +E   a      +E   S      +S   S  E   S  S  T  T  s  S  T  +T
|-------------------------12--------------15---------------------------------------------------------------------------------------12----------15-17-17-(17)--|
|--------------------12------15b17-15b17------15b17-15b17-15pb17r(15)p12-----------------------------------------------------------12----15-17----------------|
|-14p12--------14b16-----------------------------------------------------14-14pb16r(14)-14pb16r(14)-14pb16r(14)-14pb16r(14)-12--------14----------------------|
|--------14\-------------------------------------------------------------------------------------------------------------------14\----------------------------|
|-------------------------------------------------------------------------------------------------------------------------------------------------------------|
|------------0------------------------------------------------------------------------------------------------------------------------------------------------|
|
|         ~~~~~~~~~~~                                      ~~~~~~~~~~~~~~~~~~~~~~~~~~~~~
|  E      E    +S       S     E           +E               E                         H.
|---------7----(7)--------------------------------------------------------------------------------------------------------------------------------------------|
|----------------------------10b11r======(10)--------------8--------------------------------------------------------------------------------------------------|
|--9--------------------9------------------------------------------------------------9------------------------------------------------------------------------|
|-------------------------------------------------------------------------------------------------------------------------------------------------------------|
|-------------------------------------------------------------------------------------------------------------------------------------------------------------|
|-------------------------------------------------------------------------------------------------------------------------------------------------------------|
|
|         ~~~~~~~~~~~                                      ~~~~~~~~~~~~~~~~~~~~~~~~~~~~~
|  E      E    +S       S     E           +E               E                         H.
|-------------------------------------------------------------------------------------------------------------------------------------------------------------|
|-------------------------------------------------------------------------------------------------------------------------------------------------------------|
|-------------------------------------------------------------------------------------------------------------------------------------------------------------|
|-------------------------------------------------------------------------------------------------------------------------------------------------------------|
|---------2----(2)--------------------------------------------------------------------------------------------------------------------------------------------|
|--0--------------------0-----5b6r========(5)--------------3-------------------------0------------------------------------------------------------------------|


   ~~~
              |------3------|  |----3----|  |--------3---------| |-----3-----|                                                 |3-|
   Q.         S      S      S  s   s  T  T  S  S         T     t S  s  T     T  s  T     +T   T   t  T     +T   T      T   S   E  S  T  S.
|------------------------------------15----17-17b19-----15b16------17-15b16--------------------------------------------------------------------|
|-17----------------17--------15--17----15--------------------17------------15----17b20r(17)-15-----17b19r(17)-15----------------------15------|
|--------------------------16--------------------------------------------------16----------------16-------------------16\-14--14--0-16---------|
|----------------------------------------------------------------------------------------------------------------------------------------------|
|----------------------------------------------------------------------------------------------------------------------------------------------|
|----------------------------------------------------------------------------------------------------------------------------------------------|
|
|     ~~~~~~                                                                    ~~~~~~~~~~~~~~~~~
|  E  E +S  S S        +S     +E            S       S            E              E            +S      S          S         +S  +E     S     S
|-----7-(7)-9-9b10=====(9)r===(9)-----------9-----------------------------------7------------(7)-----9----------9b10======(9)r(9)----9---------|
|---------------------------------------------------8b9------------------------------------------------------------------------------------8b9-|
|--9-------------------------------------------------------------9-----------------------------------------------------------------------------|
|----------------------------------------------------------------------------------------------------------------------------------------------|
|----------------------------------------------------------------------------------------------------------------------------------------------|
|----------------------------------------------------------------------------------------------------------------------------------------------|
|
|     ~~~~~~                                                                    ~~~~~~~~~~~~~~~~~
|  E  E +S  S S        +S     +E            S       S            E              E            +S      S          S         +S  +E     S     S
|----------------------------------------------------------------------------------------------------------------------------------------------|
|----------------------------------------------------------------------------------------------------------------------------------------------|
|----------------------------------------------------------------------------------------------------------------------------------------------|
|----------------------------------------------------------------------------------------------------------------------------------------------|
|-----2-(2)-4-4b5======(4)r===(4)-----------4-----------------------------------2------------(2)-----4----------4b5=======(4)r(4)----4---------|
|--0------------------------------------------------3b4----------0-------------------------------------------------------------------------3b4-|


         ~~~~~
               |-------3-------|  |---3----|   |---------6----------|  |---3----|  |--3---|   |------3------|  |-----3------|   |-3--|                     |--3--|
   E     E     T     +T   s    S  S     S  s   T     +T   T  T S    S  T     T  T  T   T  T   T   T   T  T  S  T  T  T  T   S   E  T T X   +T   X S +S     S  S  S
|-17b19-17b19-17b19r(17)p15---17-17b19-15-17--17b19r(17)p15--------17-15b16-----------------------------------------------------------------------------------------|
|-----------------------------------------------------------17--------------17----17-----15\---------------------12------------------------------------------17-17--|
|------------------------------------------------------------------------------16-----16-----12------14----12-14----12-14------12\-9---------------------/18--------|
|-----------------------------------------------------------------------------------------------(14)----14----------------(14)-------9-7b8r(7)----------------------|
|----------------------------------------------------------------------------------------------------------------------------------------------10-7-(7)\------------|
|-------------------------------------------------------------------------------------------------------------------------------------------------------------------|
|
|        ~~~~~~~~~~~~                                            ~~~~~~~~~~~~~~~~~~~~~
|  E     E    +S            S     E           +E                 E                 H.
|--------7----(7)---------------------------------------------------------------------------------------------------------------------------------------------------|
|--------------------------------10b11r======(10)----------------8--------------------------------------------------------------------------------------------------|
|--9------------------------9------------------------------------------------------9--------------------------------------------------------------------------------|
|-------------------------------------------------------------------------------------------------------------------------------------------------------------------|
|-------------------------------------------------------------------------------------------------------------------------------------------------------------------|
|-------------------------------------------------------------------------------------------------------------------------------------------------------------------|
|
|        ~~~~~~~~~~~~                                            ~~~~~~~~~~~~~~~~~~~~~
|  E     E    +S            S     E           +E                 E                 H.
|-------------------------------------------------------------------------------------------------------------------------------------------------------------------|
|-------------------------------------------------------------------------------------------------------------------------------------------------------------------|
|-------------------------------------------------------------------------------------------------------------------------------------------------------------------|
|-------------------------------------------------------------------------------------------------------------------------------------------------------------------|
|--------2----(2)---------------------------------------------------------------------------------------------------------------------------------------------------|
|--0------------------------0-----5b6r========(5)----------------3-----------------0--------------------------------------------------------------------------------|


   TP                        TP   TP       TP     TP
                                                        |-----3-----|
   H                        +E   +E       +Q     +E     T      +T   T  T   T  T     T  T  T  T     +T   T    T
|-19b22====================(19)-(19)-----(19)r==(19)---17pb19r(17)p15-17h=19-15b16-17-15----17b19r(17)p15---17-|
|----------------------------------------------------------------------------------------17--------------------|
|--------------------------------------------------------------------------------------------------------------|
|--------------------------------------------------------------------------------------------------------------|
|--------------------------------------------------------------------------------------------------------------|
|--------------------------------------------------------------------------------------------------------------|
|
|        ~~~~~~                               ~~~~~~~
|  E     E +S  S S     +S   +E    S  S     E  E  +S  S  S             +S     +E              S          S
|--------7-(7)-9-9b10==(9)r=(9)---9-----------7--(7)-9--9b10==========(9)r===(9)-------------9-----------------|
|------------------------------------8b9----------------------------------------------------------------8b9----|
|--9---------------------------------------9-------------------------------------------------------------------|
|--------------------------------------------------------------------------------------------------------------|
|--------------------------------------------------------------------------------------------------------------|
|--------------------------------------------------------------------------------------------------------------|
|
|        ~~~~~~                               ~~~~~~~
|  E     E +S  S S     +S   +E    S  S     E  E  +S  S  S             +S     +E              S          S
|--------------------------------------------------------------------------------------------------------------|
|--------------------------------------------------------------------------------------------------------------|
|--------------------------------------------------------------------------------------------------------------|
|--------------------------------------------------------------------------------------------------------------|
|--------2-(2)-4-4b5===(4)r=(4)---4-----------2--(2)-4--4b5===========(4)r===(4)-------------4-----------------|
|--0---------------------------------3b4---0------------------------------------------------------------3b4----|


           |--3--|  |----3-----|                     |-----3------|  |-----3------|   |--3--|   |-----3-----|                                       |--3---|  |-3--|
   S  +S   S  S  S  S     S    S  T     X  X  T  T   T   T  X  X  T  s  S  T     +T   E     S   S  X  X  X  X  S     T  T  T  T  S     S     S     +T   T  S  S  S S
|-15-(15)----12----------12--------------------------------------------------------------------------------------------------------------------------------------------*|
|---------15----12-15b17-12---12-------12-12-15p12------12----------------------------------0-----------------------12-12-15p12----------------------------------------*|
|--------------------------------14b16--------------14-----12h14p12-14-12-14b16r(14)-----------------12-------14b16-------------16b18-16b19-14b16r(14)p12--------------*|
|------------------------------------------------------------------------------------14\----------12----14p12---------------------------------------------14-12\-7-5b6-*|
|---------------------------------------------------------------------------------------------/14----------------------------------------------------------------------*|
|----------------------------------------------------------------------------------------------------------------------------------------------------------------------*|
|
|          ~~~~~~~~~~~~~~                                               ~~~~~~~~~~~~~~~~~~~~
|  E       E       +S       S     E                 +E                  E                H.
|----------7-------(7)-------------------------------------------------------------------------------------------------------------------------------------------------*|
|--------------------------------10b11r============(10)-----------------8----------------------------------------------------------------------------------------------*|
|--9------------------------9------------------------------------------------------------9-----------------------------------------------------------------------------*|
|----------------------------------------------------------------------------------------------------------------------------------------------------------------------*|
|----------------------------------------------------------------------------------------------------------------------------------------------------------------------*|
|----------------------------------------------------------------------------------------------------------------------------------------------------------------------*|
|
|          ~~~~~~~~~~~~~~                                               ~~~~~~~~~~~~~~~~~~~~
|  E       E       +S       S     E                 +E                  E                H.
|----------------------------------------------------------------------------------------------------------------------------------------------------------------------*|
|----------------------------------------------------------------------------------------------------------------------------------------------------------------------*|
|----------------------------------------------------------------------------------------------------------------------------------------------------------------------*|
|----------------------------------------------------------------------------------------------------------------------------------------------------------------------*|
|----------2-------(2)-------------------------------------------------------------------------------------------------------------------------------------------------*|
|--0------------------------0-----5b6r==============(5)-----------------3----------------0-----------------------------------------------------------------------------*|


Duration Legend
---------------
W - whole; H - half; Q - quarter; E - 8th; S - 16th; T - 32nd; X - 64th; a - acciaccatura
+ - note tied to previous; . - note dotted; .. - note double dotted
Uncapitalized letters represent notes that are staccato (1/2 duration)
Irregular groupings are notated above the duration line
Duration letters will always appear directly above the note/fret number it represents the
duration for.  Duration letters with no fret number below them represent rests.  Multi-
bar rests are notated in the form Wxn, where n is the number of bars to rest for.  Low
melody durations appear below the staff

Tablature Legend
----------------
 h   - hammer-on
 p   - pull-off
 b   - bend
 pb  - pre-bend
 r   - bend release (if no number after the r, then release immediately)
 /\  - slide into or out of (from/to "nowhere")
 s   - legato slide
 S   - shift slide
  - natural harmonic
[n]  - artificial harmonic
n(n) - tapped harmonic
 ~   - vibrato
 tr  - trill
 T   - tap
 TP  - trem. picking
 PM  - palm muting
\n/  - tremolo bar dip; n = amount to dip
 \n  - tremolo bar down
 n/  - tremolo bar up
/n\  - tremolo bar inverted dip
 =   - hold bend; also acts as connecting device for hammers/pulls
 <>  - volume swell (louder/softer)
 x   - on rhythm slash represents muted slash
 o   - on rhythm slash represents single note slash

Misc Legend
-----------
 |  - bar
||  - double bar
||o - repeat start
o|| - repeat end
*|  - double bar (ending)
 :  - bar (freetime)
 $  - Segno
 &  - Coda
Tempo markers -  = BPM(8/16=s8/s16), where s8 = swing 8ths, s16 = swing 16ths
Добавлено: 23.05.2015
Другие материалы по этой песне:

Страница создана 18.07.2012
http://primanota.ru/eagles/teenage-jail-chords.htm
Привет, Гость.
Предлагаем пройти революционный курс по гитаре.
Подарок от PrimaNota.Ru, забирай!