PrimaNota.ru - самый крупный в мире бесплатный архив песенных текстов, аккордов, табулатур и нот


Eagles Of Death Metal - Dont Move I Came To Make A Bang From Need For Speed Carbon - бас-таба, видео

Регистрация Запомнить меня
Войти через:  Facebook Google Twitter Vk Yandex Mail.ru

Eagles Of Death Metal - Dont Move I Came To Make A Bang From Need For Speed Carbon - бас-таба, видео

Печатать
Просмотров: 271
Don't Move by The Eagles of Death Metal bass tab

I recommend you use your fingers. Its a bit easier unless you prefer pic. This is my 
tab and it's 100% correct, enjoy.
Also just listen to the song structure and the tab will make sense. It's slightly fast.

Intro
E|6666-6666-66

Verse 1
G|-----------------------|
D|-----------------------|
A|-----676----676--------|
E|6-6-9---96-9---969-6-6-|x4

E|6~66 x4

Play verse 1
Play Verse 1 again

Verse 2(Key change, same as verse 1 just in a different key)
G|---------------------------|
D|---------------------------|
A|------9109-------9109------|
E|9-9-12----129-12-----12912-|x2

Verse 1
G|-----------------------|
D|-----------------------|
A|-----676----676--------|
E|6-6-9---96-9---969-6-6-|x2

E|6~66 x9

Ending
G|-----------------------|
D|-----------------------|
A|-----676----676--------|
E|6-6-9---96-9---969-6-6-|x8

E|6~66 x1
Добавлено: 02.03.2012
Другие материалы по этой песне:
  • Аккорды и текст

Страница создана 02.03.2012
http://primanota.ru/eagles-of-death-metal/dont-move-i-came-to-make-a-bang-from-need-for-speed-carbon-chords.htm
Привет, Гость.
Предлагаем пройти революционный курс по гитаре.
Подарок от PrimaNota.Ru, забирай!