PrimaNota.ru - самый крупный в мире бесплатный архив песенных текстов, аккордов, табулатур и нот


E-z Rollers - Short Change - таба, видео

Регистрация Запомнить меня
Войти через:  Facebook Google Twitter Vk Yandex Mail.ru

E-z Rollers - Short Change - таба, видео

Печатать
Просмотров: 167
Авторы музыки: Alex Banks, Jay Hurren

Gtr I (E A D G B E) - 'Rhythm Guitar'
Gtr II (E A D G) - 'Bass'

Q=77 4/4

Gtr I

e|---------------------------------------------------------------------------|
B|---------------------------------------------------------------------------|
G|---------8---8-----------8---8---------------------------------------------|
D|--10-----8---8----10-----8---8----10---------------------------------------|
A|--10--------------10--------------10---------------------------------------|
E|---------------------------------------------------------------------------|


Gtr I

e|---------------------------------------------------------------------------|
B|---------------------------------------------------------------------------|
G|----------8---8------------------------------------------------------------|
D|----------8---8----10--------8---------------------------------------------|
A|-------------------10--------8---------------------------------------------|
E|---------------------------------------------------------------------------|


Gtr I
                        PM     PM                           PM     PM
e|---------------------------------------------------------------------------|
B|------(8)--11--8----------------10---------(8)-11--8----------------10-----|
G|---------------8--8--(8)-8--(8)-10-----------------8--8--(8)-8--(8)-10-----|
D|--10--10----------8--(8)-8--(8)-----10--10------------8--(8)-8--(8)--------|
A|--10--------------------------------10-------------------------------------|
E|---8---------------------------------8-------------------------------------|


Gtr II

G|---------------------------------------------------------------------------|
D|---------------------------------------------------------------------------|
A|------------------6------6-------8--------------------6------6-------8-----|
E|---8---------------------------------8-------------------------------------|


Gtr I
                      PM     PM                           PM     PM    PM
e|--------------------------------------------------------------------------|
B|-----(8)--11--8----------------10---------(8)-11--8-----------------------|
G|--------------8--8--(8)-8--(8)-10-----------------8----------------8------|
D|-10--10----------8--(8)-8--(8)-----10--10------------8--(8)-8--(8)-8-(8)--|
A|-10--------------------------------10----------------8--(8)-8--(8)---(8)--|
E|--8---------------------------------8-------------------------------------|

Gtr II
                                                                PM
G|--------------------------------------------------------------------------|
D|--------------------------------------------------------------------------|
A|-----------------6------6-------8----------------------------------6------|
E|--8---------------------------------8----------------6----------6-----6---|

Добавлено: 03.12.2015
Вам также может быть интересно:
Другие материалы по этой песне:
  • Аккорды и текст

Страница создана 03.12.2015
http://primanota.ru/e-z-rollers/short-change-chords.htm
Привет, Гость.
Предлагаем пройти революционный курс по гитаре.
Подарок от PrimaNota.Ru, забирай!