PrimaNota.ru - самый крупный в мире бесплатный архив песенных текстов, аккордов, табулатур и нот


Dzem - Sen O Wictorii - таба, видео

Регистрация Запомнить меня
Войти через:  Facebook Google Twitter Vk Yandex Mail.ru

Dzem - Sen O Wictorii - таба, видео

Печатать
Просмотров: 66
-------------------------------------------------------------------------------
                             SONG NAME - Band Name
-------------------------------------------------------------------------------
Tabbed by:Prendki
Tuning:Standard
-----------------------
Intro | Solo
-----------------------

e|0-----------0-----------3-----1-----0--------------------------------------|
B|1-----1-----1-----1-----1-----1-----1-----3p1-0h1--------------------------|
G|---0-----0-----0-----0-----2-----2-----2-----------------------------------|
D|------------------------3--------------------------------------------------|
A|3-----------2--------------------------------------------------------------|
E|---------------------------------------------------------------------------|

e|0-----------0--------------------------------------------------------------|
B|1-----1-----1-----1-----3-----3h5-3~--1-0h1p0h1----------------------------|
G|---0-----0-----0-----0-----2-----------------------------------------------|
D|------------------------3--------------------------------------------------|
A|3-----------2--------------------------------------------------------------|
E|---------------------------------------------------------------------------|

e|0-----------0-----------3-----1-----0--------------------------------------|
B|1-----1-----1-----1-----1-----1-----1-----3p1-0h1--------------------------|
G|---0-----0-----0-----0-----2-----2-----2-----------------------------------|
D|------------------------3--------------------------------------------------|
A|3-----------2--------------------------------------------------------------|
E|---------------------------------------------------------------------------|

e|0-----------0--------------------------0h3p0-0h1p0-------------------------|
B|1-----1-----1-----1-----3-----3h5-3~---------------3p1-0h1-----------------|
G|---0-----0-----0-----0-----2-----------------------------------------------|
D|------------------------3--------------------------------------------------|
A|3-----------2--------------------------------------------------------------|
E|---------------------------------------------------------------------------|

-----------------------
Whole Song | Cała piosenka
-----------------------

e|0-----0-----0-----0-----3-----1-----0--------------------------------------|
B|1-----1-----1-----1-----1-----1-----1-----3p1-0h1--------------------------|
G|---0-----0-----0-----0-----2-----2-----2-----------------------------------|
D|------------------------3--------------------------------------------------|
A|3-----------2--------------------------------------------------------------|
E|---------------------------------------------------------------------------|
Dzisiaj miałem piękny sen
e|0-----0-----0-----0-----3-----1-----0--------------------------------------|
B|1-----1-----1-----1-----1-----1-----1-----3p1-0h1--------------------------|
G|---0-----0-----0-----0-----2-----2-----2-----------------------------------|
D|------------------------3--------------------------------------------------|
A|3-----------2--------------------------------------------------------------|
E|---------------------------------------------------------------------------|
Naprawdę piękny sen
e|0-----0-----0-----0-----3-----1-----0--------------------------------------|
B|1-----1-----1-----1-----1-----1-----1-----3p1-0h1--------------------------|
G|---0-----0-----0-----0-----2-----2-----2-----------------------------------|
D|------------------------3--------------------------------------------------|
A|3-----------2--------------------------------------------------------------|
E|---------------------------------------------------------------------------|
Wolności moja, śniłem, że
e|1-----1-----1-----1-----0-----0-----0-----0--------------------------------|
B|3-----3-----1-----1-----1-----1-----1-----1--------------------------------|
G|---2-----2-----2-----2-----2-----2-----2----2------------------------------|
D|0-----------3--------------------------------------------------------------|
A|------------------------3-----------2--------------------------------------|
E|---------------------------------------------------------------------------|
Wziąłem z Tobą ślub

...
-----------------------
Leave a Comment | Zostaw Komentarz
-----------------------

************************************

| /   slide up
| \   slide down
| h   hammer-on
| p   pull-off
| ~   vibrato
| +   harmonic
| x   Mute note
| b   Bend
| pb  Pre-bend
| br  Bend release
| pbr Pre-bend release
| brb Bend release bend

************************************
Добавлено: 29.11.2015
Другие материалы по этой песне:

Страница создана 04.07.2012
http://primanota.ru/dzem/sen-o-wictorii-chords.htm
Привет, Гость.
Предлагаем пройти революционный курс по гитаре.
Подарок от PrimaNota.Ru, забирай!