PrimaNota.ru - самый крупный в мире бесплатный архив песенных текстов, аккордов, табулатур и нот


Dzem - Harley Moj - таба, видео

Регистрация Запомнить меня
Войти через:  Facebook Google Twitter Vk Yandex Mail.ru

Dzem - Harley Moj - таба, видео

Печатать
Просмотров: 117
     "Harlej moj"
    (from "Najemnik")
    Music by Dzem

    e-------------------------2-----------------|
    H------2---2-------2---3--------3/5--5--3---|
    G------2---2-------2---2--------------------|
    D------2---2-------2---0--------------------|
    A------0---0-------0------------------------|
    E-------------------------------------------|

    e-----------------------------2--------------------------------|
    H--------2---2-----2---3----------------------------2--2-------|
    G--2--4----2---2-----2---2----------------------------2--2-----|
    D------------2---2-----2---0----------------------------2--2---|
    A-------------0---0-----0-------0---------0h2--0------0--0-----|
    E----------------------------------------0h2------------2------|


Gandalf_90
Добавлено: 23.04.2012
Другие материалы по этой песне:

Страница создана 23.04.2012
http://primanota.ru/dzem/harley-moj-chords.htm
Привет, Гость.
Предлагаем пройти революционный курс по гитаре.
Подарок от PrimaNota.Ru, забирай!