PrimaNota.ru - самый крупный в мире бесплатный архив песенных текстов, аккордов, табулатур и нот


Dzelzs Vilks - Pret Sienu - таба, видео

Регистрация Запомнить меня
Войти через:  Facebook Google Twitter Vk Yandex Mail.ru

Dzelzs Vilks - Pret Sienu - таба, видео

Печатать
Просмотров: 101
Авторы: Dzelzs vilks

Ofiicial site: http://www.dzelzsvilks.lv/
Izklausās ka ģitāra tiek skaņota stipri zemāk, bet šeit 
skaņojums ir par pustoni zemāks kā standarta.

1:Intro un pants

      E  Q    Q    E  E  E     E  Q    Q    E  E  E     E  Q    Q    E  E  E   
D#||------------------------|------------------------|------------------------|
A#||-----7------------7-----|-----6------------4-----|-----7------------7-----|
F#||------------------------|------------------------|------------------------|
C#||------------------------|------------------------|------------------------|
G#||--6-------6----6-----6--|--4-------2----2-----2--|--6-------6----6-----6--|
D#||------------------------|------------------------|------------------------|


  E  Q    Q    E  E  E     E  Q    Q    E  E  E     E  Q    Q    E  E  E   
------------------------|------------------------|------------------------|
-----6------------4-----|------------------------|------------------------|
------------------------|-----3------------3-----|-----1------------1-----|
------------------------|------------------------|------------------------|
--4-------2----2-----2--|------------------------|------------------------|
------------------------|--2-------2----2-----2--|--0-------0----0-----0--|


  E  Q    Q    E  E  E     E  Q    E  Q    Q             
------------------------|-----------------------|-------|
------------------------|-----------------------|-------|
-----3------------3-----|-----5-------6----8----|-------|
------------------------|-----------------------|-------|
------------------------|-----------------------|-------|
--2-------2----2-----2--|--4-------4------------|-------|

2: Piedziedājums.

  E  Q    Q    E  Q       E  Q    Q    E  Q       E   Q    Q    E   Q     
-----------------------|-----------------------|-------------------------|
-----7------------7----|-----6------------4----|-----11------------11----|
-----------------------|-----------------------|-------------------------|
-----------------------|-----------------------|-------------------------|
--6-------6----6-------|--4-------2----2-------|--9--------9----9--------|
-----------------------|-----------------------|-------------------------|


  E  Q    Q    E  Q                                     
-----------------------|-------|-------|-------|-------|
-----9------------9----|-------|-------|-------|-------|
-----------------------|-------|-------|-------|-------|
-----------------------|-------|-------|-------|-------|
--7-------7----7-------|-------|-------|-------|-------|
-----------------------|-------|-------|-------|-------|

3:Solo.

   Q.      H         E      Q     Q     H            Q.      H         E   
------------------------|------------------------|------------------------|
------------------------|------------------------|------------------------|
--10------11--------10--|--11----15----13--------|--10------11--------18--|
------------------------|------------------------|------------------------|
------------------------|------------------------|------------------------|
------------------------|------------------------|------------------------|


   Q     H        Q       Q.     Q.      Q       Q    E  H        E   
-----------------------|----------------------|----------------------|
-----------------------|----------------------|----------------------|
--16----15-------------|----------------------|----------------------|
------------------8----|--L------8------11----|--9----6--8--------x--|
-----------------------|----------------------|----------------------|
-----------------------|----------------------|----------------------|

                          L nozīmē turēt noti.
   Q.      Q.      Q                  
------------------------|-----------||
------------------------|-----------||
------------------------|-----------||
--10------11------13----|-----------||
------------------------|-----------||
------------------------|-----------||
Добавлено: 05.07.2012
Другие материалы по этой песне:
  • Аккорды и текст

Страница создана 05.07.2012
http://primanota.ru/dzelzs-vilks/pret-sienu-chords.htm
Привет, Гость.
Предлагаем пройти революционный курс по гитаре.
Подарок от PrimaNota.Ru, забирай!