PrimaNota.ru - самый крупный в мире бесплатный архив песенных текстов, аккордов, табулатур и нот


Dz Deathrays - Nightwalking - таба, видео

Регистрация Запомнить меня
Войти через:  Facebook Google Twitter Vk Yandex Mail.ru

Dz Deathrays - Nightwalking - таба, видео

Печатать
Просмотров: 94
Уроки эстрадного вокала в Санкт-Петербурге
-------------------------------------------------------------------------------
                             Nightwalking - DZ Deathrays
-------------------------------------------------------------------------------
Tabbed by: BassmanBlazek
E-mail: zlogar.blaz9@gmail.com

Tuning: DADGBe

INTRO

e|---------------------------------------------------------------------------|
B|---------------------------------------------------------------------------|
G|---------------------------------------------------------------------------|
D|-10-10-10-10-10-10-10-10-10-15-15-15-15-7-7-7-7-8-8-8-8-8-8-8-3-3-3-3-3-3--|
A|-10-10-10-10-10-10-10-10-10-15-15-15-15-7-7-7-7-8-8-8-8-8-8-8-3-3-3-3-3-3--|
D|-10-10-10-10-10-10-10-10-10-15-15-15-15-7-7-7-7-8-8-8-8-8-8-8-3-3-3-3-3-3--|

e|---------------------------------------------------------------------------|
B|---------------------------------------------------------------------------|
G|-----------------------------------------PLAYED 2 TIMES--------------------|
D|-15-15-15-15-7-7-7-7-12-12-12-12-12-12-------------------------------------|
A|-15-15-15-15-7-7-7-7-12-12-12-12-12-12-------------------------------------|
D|-15-15-15-15-7-7-7-7-12-12-12-12-12-12-------------------------------------|

VERSE (This part is played on bass but you can play it on guitar and it sounds good as well)

G|---------------------------------------------------------------PLAYED------|
D|---------------------------------------3---3-----------3---3---4-TIMES-----|
A|-----0---1---0-----0---1---0-----3---------------3-------------------------|
D|-3-3---3---3---3-3---3---3---3-3---3-3---3---3-3---3-3---3-----------------|

CHORUS

e|---------------------------------------------------------------------------|
B|---------------------------------------------------------------------------|
G|---------------------------------------------------------------------------|
D|-10-10-10-10-10-10-10-10-10-15-15-15-15-7-7-7-7-8-8-8-8-8-8-8-3-3-3-3-3-3--|
A|-10-10-10-10-10-10-10-10-10-15-15-15-15-7-7-7-7-8-8-8-8-8-8-8-3-3-3-3-3-3--|
D|-10-10-10-10-10-10-10-10-10-15-15-15-15-7-7-7-7-8-8-8-8-8-8-8-3-3-3-3-3-3--|

e|---------------------------------------------------------------------------|
B|------------------------------------------PLAYED 2 TIMES-------------------|
G|---------------------------------------------------------------------------|
D|-15-15-15-15-7-7-7-7-12-12-12-12-12-12-------------------------------------|
A|-15-15-15-15-7-7-7-7-12-12-12-12-12-12-------------------------------------|
D|-15-15-15-15-7-7-7-7-12-12-12-12-12-12-------------------------------------|

VERSE 

G|---------------------------------------------------------------------------|
D|---------------------------------------3---3-----------3---3--PLAYED ------|
A|-----0---1---0-----0---1---0-----3---------------3------------4 TIMES------|
D|-3-3---3---3---3-3---3---3---3-3---3-3---3---3-3---3-3---3-----------------|

CHORUS

e|---------------------------------------------------------------------------|
B|---------------------------------------------------------------------------|
G|---------------------------------------------------------------------------|
D|-10-10-10-10-10-10-10-10-10-15-15-15-15-7-7-7-7-8-8-8-8-8-8-8-3-3-3-3-3-3--|
A|-10-10-10-10-10-10-10-10-10-15-15-15-15-7-7-7-7-8-8-8-8-8-8-8-3-3-3-3-3-3--|
D|-10-10-10-10-10-10-10-10-10-15-15-15-15-7-7-7-7-8-8-8-8-8-8-8-3-3-3-3-3-3--|

e|---------------------------------------------------------------------------|
B|------------------------------------------PLAYED 2 TIMES-------------------|
G|---------------------------------------------------------------------------|
D|-15-15-15-15-7-7-7-7-12-12-12-12-12-12-------------------------------------|
A|-15-15-15-15-7-7-7-7-12-12-12-12-12-12-------------------------------------|
D|-15-15-15-15-7-7-7-7-12-12-12-12-12-12-------------------------------------|

BRIDGE

e|---------------------------------------------------------------------------|
B|---------------------------------------------------------------------------|
G|-------------------------------------------------------PLAYED 2 TIMES------|
D|-12-12-12-12-12-12-12-12-12-12-12-12-12-12-12------------------------------|
A|-12-12-12-12-12-12-12-12-12-12-12-12-12-12-12------------------------------|
D|-12-12-12-12-12-12-12-12-12-12-12-12-12-12-12------------------------------|

e|---------------------------------------------------------------------------|
B|---------------------------------------------------------------------------|
G|-14-14-14-14-14-14-14-14-------------------14-14-14-14-14-14-14------------|
D|-14-14-14-14-14-14-14-14-12-12-12-12-12-12-14-14-14-14-14-14-14------------|
A|-12-12-12-12-12-12-12-12-12-12-12-12-12-12-12-12-12-12-12-12-12------------|
D|-------------------------12-12-12-12-12-12---------------------------------|

BRIDGE 2

e|---------------------------------------------------------------------------|
B|-Guitar 1-----------------------------------------PLAYED 2 TIMES-----------|
G|---------------------------------------------------------------------------|
D|-10-10-10-10-10-10-10-10-10-10-10-15-15-15-15-15-15-12-12-12-12-12-12------|
A|-10-10-10-10-10-10-10-10-10-10-10-15-15-15-15-15-15-12-12-12-12-12-12------|
D|-10-10-10-10-10-10-10-10-10-10-10-15-15-15-15-15-15-12-12-12-12-12-12------|

e|---------------------------------------------------------------------------|
B|-Guitar 2-----------------------------------------PLAYED 2 TIMES-----------|
G|---------------12~~~~~~------14~~------------------------------------------|
D|----------------------------------15~~~~~~----------12~~~~~~---------------|
A|---------------------------------------------------------------------------|
D|---------------------------------------------------------------------------|

CHORUS 

e|---------------------------------------------------------------------------|
B|---------------------------------------------------------------------------|
G|---------------------------------------------------------------------------|
D|-10-10-10-10-10-10-10-10-10-15-15-15-15-7-7-7-7-8-8-8-8-8-8-8-3-3-3-3-3-3--|
A|-10-10-10-10-10-10-10-10-10-15-15-15-15-7-7-7-7-8-8-8-8-8-8-8-3-3-3-3-3-3--|
D|-10-10-10-10-10-10-10-10-10-15-15-15-15-7-7-7-7-8-8-8-8-8-8-8-3-3-3-3-3-3--|

e|---------------------------------------------------------------------------|
B|---------------------------------------------------------------------------|
G|-----------------------------------------PLAYED 4 TIMES--------------------|
D|-15-15-15-15-7-7-7-7-12-12-12-12-12-12-------------------------------------|
A|-15-15-15-15-7-7-7-7-12-12-12-12-12-12-------------------------------------|
D|-15-15-15-15-7-7-7-7-12-12-12-12-12-12-------------------------------------|

BRIDGE 2

e|---------------------------------------------------------------------------|
B|-Guitar 1-----------------------------------------PLAYED 4 TIMES-----------|
G|---------------------------------------------------------------------------|
D|-10-10-10-10-10-10-10-10-10-10-10-15-15-15-15-15-15-12-12-12-12-12-12------|
A|-10-10-10-10-10-10-10-10-10-10-10-15-15-15-15-15-15-12-12-12-12-12-12------|
D|-10-10-10-10-10-10-10-10-10-10-10-15-15-15-15-15-15-12-12-12-12-12-12------|

e|---------------------------------------------------------------------------|
B|-Guitar 2-----------------------------------------PLAYED 4 TIMES-----------|
G|---------------12~~~~~~------14~~------------------------------------------|
D|----------------------------------15~~~~~~----------12~~~~~~---------------|
A|---------------------------------------------------------------------------|
D|---------------------------------------------------------------------------|



************************************

| /   slide up
| \   slide down
| h   hammer-on
| p   pull-off
| ~   vibrato
| +   harmonic
| x   Mute note
| b   Bend
| pb  Pre-bend
| br  Bend release
| pbr Pre-bend release
| brb Bend release bend

************************************
Добавлено: 01.03.2016
Вам также может быть интересно:
Другие материалы по этой песне:
  • Аккорды и текст

Страница создана 01.03.2016
http://primanota.ru/dz-deathrays/nightwalking-chords.htm
Привет, Гость.
Предлагаем пройти революционный курс по гитаре.
Подарок от PrimaNota.Ru, забирай!