PrimaNota.ru - самый крупный в мире бесплатный архив песенных текстов, аккордов, табулатур и нот


Dz Deathrays - Gina Works At Hearts - таба, видео

Регистрация Запомнить меня
Войти через:  Facebook Google Twitter Vk Yandex Mail.ru

Dz Deathrays - Gina Works At Hearts - таба, видео

Печатать
Просмотров: 79
-------------------------------------------------------------------------------
                             Gina Works at Hearts - DZ Deathrays
-------------------------------------------------------------------------------
My first tab, hope its not shit
Tuning: Drop D

Intro/Verse

e|--------------------------------------------------------------------------------|
B|--------------------------------------------------------------------------------|
G|--------------------------------------------------------------------------------|
D|--------------------------------------------------------------------------------|
A|--------------------------------------------------------------------------------|
E|---5--0--4--0--8--0--2-2---0--12--12--12----------------------------------------|

Pre Chorus

strum the chords
e|---------------------------------------------------------------------------|
B|--------------------------------------13-----------------------------------|
G|--13------------------10--------------12-----------------------------------|
D|--13------------------12--------------12-----------------------------------|
A|--11------------------12---(x8)-------10---(x16)---------------------------|
E|--11---(x8)----------------------------------------------------------------|


Chorus - Rhythm


e|---------------------------------------------------------------------------|
B|---------------------------------------------------------------------------|
G|---------------------------------------------------------------------------|
D|-----8-------------12-----------------5------------------------------------|
A|-----8-------------12-----------------5------------------------------------|
E|-----8---(x8)------12-----(x8)--------5-----(x16)--------------------------|

Chorus - Lead

e|---------------------------------------------------------------------------|
B|---10----10------13------10------------------------------------------------|
G|----------------------------------10------10---------7--------10-----------|
D|---------------------------------------------------------------------------|
A|---------------------------------------------------------------------------|
E|---------------------------------------------------------------------------|


Bridge part 1

"and the power of love..."
e|---------------------------------------------------------------------------|
B|---------------------------------------------------------------------------|
G|--17--------19--------14--------16-----------------------------------------|
D|--15--------17--------12--------14-----------------------------------------|
A|--15--------17--------12--------14-----------------------------------------|
E|--15-(x8)---17-(x8)---12-(x8)---14-(x8)------------------------------------|


Bridge Part 2


e|---------------------------------------------------------------------------|
B|---------------------------------------------------------------------------|
G|-----------------------------------------------10--------------------------|
D|---8-8-8---12----8-8---12--8-8-8-8-8---10--12------------------------------|
A|---8-8-8---------8-8-------8-8-8-8-8---------------------------------------|
E|---8-8-8---------8-8-------8-8-8-8-8---------------------------------------|

e|---------------------------------------------------------------------------|
B|---------------------------------------------------------------------------|
G|---------------------------------------------------------------------------|
D|--5-5-5--8--5-5--8--5-5-5-5-5--8--10--8------------------------------------|
A|--5-5-5-----5-5-----5-5-5-5-5----------------------------------------------|
E|--5-5-5-----5-5-----5-5-5-5-5----------------------------------------------|

Outro - Lead

Rhythm Guitar plays Chorus

e|---------------------------------------------------------------------------|
B|----10---10---10---13-10---10---10---11-10---10---10---11-10---10----10----|
G|---------------------------------------------------------------------------|
D|---------------------------------------------------------------------------|
A|---------------------------------------------------------------------------|
E|---------------------------------------------------------------------------|

e|----10---10---10---13-10---10---10---11-10---10---10---11-10---10----10----|
B|---------------------------------------------------------------------------|
G|---------------------------------------------------------------------------|
D|---------------------------------------------------------------------------|
A|---------------------------------------------------------------------------|
E|---------------------------------------------------------------------------|

************************************

| /   slide up
| \   slide down
| h   hammer-on
| p   pull-off
| ~   vibrato
| +   harmonic
| x   Mute note
| b   Bend
| pb  Pre-bend
| br  Bend release
| pbr Pre-bend release
| brb Bend release bend

************************************
Добавлено: 07.08.2015
Другие материалы по этой песне:
  • Аккорды и текст

Страница создана 07.08.2015
http://primanota.ru/dz-deathrays/gina-works-at-hearts-chords.htm
Привет, Гость.
Предлагаем пройти революционный курс по гитаре.
Подарок от PrimaNota.Ru, забирай!