PrimaNota.ru - самый крупный в мире бесплатный архив песенных текстов, аккордов, табулатур и нот


Dz Deathrays - Fixations - таба, видео

Регистрация Запомнить меня
Войти через:  Facebook Google Twitter Vk Yandex Mail.ru

Dz Deathrays - Fixations - таба, видео

Печатать
Просмотров: 90
Tabbed by Modnarandom

Drop D

Please comment any corrections below

Intro (0:00)

e|------------7-7-------------------------------------------------|
B|----------------------------------------------------------------|
G|--4--7-7-4------------------------------------------------------|
D|----------------------------------------------------------------|
A|----------------------------------------------------------------|
D|----------------------------------------------------------------|x4

Verse 1 (0:08)

e|----------------------------------------------------------------|
B|----------------------------------------------------------------|
G|----------------------------------------------------------------|
D|----------------------------------------------------------------|
A|--2--5--2-------------------------------------------------------|
D|----------------------------------------------------------------|x8

I got my hand covering the front of my head
Trying to read my palm my future's all planned
Stare into nothing like cos nothing's ever subtle
Feel like time's wasted, fixed on doing something

Chorus (0:25)


e|-------------------------------------------------------xxxxxx---|
B|-------------------------------------------------------xxxxxx---|
G|--------------------------------------4--6--7-------------------|
D|--------------4--6--7-------------------------------------------|
A|--2--5--2-----------------5--7--8-------------------------------|
D|----------------------------------------------------------------|x2

Fixations
My problems
Fixations
Can't solve them

Postchorus (0:40) 

e|----------------------------------------------------------------|
B|----------------------------------------------------------------|
G|----------------------------------------------------------------|
D|----------------------------------------------------------------|
A|------------------------------------------------/10-9-----------|
D|------------------------------------------------------12--------|

Verse 2 (0:45)

e|----------------------------------------------------------------|
B|----------------------------------------------------------------|
G|----------------------------------------------------------------|
D|----------------------------------------------------------------|
A|--2--5--2------1--5--0------------------------------------------|
D|----------------------------------------------------------------|x4

Forget about fixes, forget about problems
My own decisions, tainted by the obvious
We stare at each other, with nothing to say
But when we say it, start to fixate

Chorus (1:00)


e|-------------------------------------------------------xxxxxx---|
B|-------------------------------------------------------xxxxxx---|
G|--------------------------------------4--6--7-------------------|
D|--------------4--6--7-------------------------------------------|
A|--2--5--2-----------------5--7--8-------------------------------|
D|----------------------------------------------------------------|x2

Fixations
My problems
Fixations
Can't solve them


Postchorus (1:15)

e|------------------------------------------------------------7---7--|
B|----------3---3-----------7---7-----------3---3--------------------|
G|--------------------------------------------------4-4-4-4-4---4----|
D|------------------4-4-4-4---4---4----------------------------------|
A|--2-2-2-2---2---2-----------------5-5-5-5---5---5------------------|
D|-------------------------------------------------------------------|x2 

High, you gotta let it out
Oh, and fixate on something now
High, you gotta let it out


e|----------------------------------------------------------------|
B|--777777777777777777777777777777777777777777777777--------------|
G|----------------------------------------------------------------|
D|----------------------------------------------------------------|
A|----------------------------------------------------------------|
D|----------------------------------------------------------------|


Verse 3 (1:40)

e|----------------------------------------------------------------|
B|----------------------------------------------------------------|
G|----------------------------------------------------------------|
D|----------------------------------------------------------------|
A|--2--5--2------1--5-0-------------------------------------------|
D|----------------------------------------------------------------|x2

I hear my body, I try to learn
Mistakes are what makes me feel like I'm disconcerted

e|----------------------------------------------------------------|
B|----------------------------------------------------------------|
G|----------------------------------------------------------------|
D|-----------------0-------------------------0--------------------|
A|--2--5--2--2-2--------------2--5--2--2-2------------------------|
D|--------------0-2-----------------------0-2---------------------|

I hear my body, I try to learn

e|----------------------------------------------------------------|
B|----------------------------------------------------------------|
G|----------------------------------------------------------------|
D|-----------------0----------------------------------------------|
A|--2--5--2--2-2--------------2--5--2-----------------------------|
D|--------------0-2-----------------------------------------------|

Mistakes are what makes me feel like I'm disconcerted


Chorus (1:56)

e|-------------------------------------------------------xxxxxx---|
B|--------------------------------------6--8--9----------xxxxxx---|
G|--------------6--8--9-----------------4--6--7-------------------|
D|--4--7--4-----4--6--7-----7--9--10------------------------------|
A|--2--5--2-----------------5--7--8-------------------------------|
D|----------------------------------------------------------------|x2 

Fixations
My problems
Fixations
Can't solve them

Postchorus (2:11)

e|------------------------------------------------------------7---7--|
B|----------3---3-----------7---7-----------3---3--------------------|
G|--------------------------------------------------4-4-4-4-4---4----|
D|------------------4-4-4-4---4---4----------------------------------|
A|--2-2-2-2---2---2-----------------5-5-5-5---5---5------------------|
D|-------------------------------------------------------------------|x4

High, you gotta let it out
Oh, and fixate on something now
High, you gotta let it out
And I,
It all makes me feel like I'm just no good
But I,
Stand tall, lately I've been thinking that I should
All right

Chorus (2:43)

e|----------------------------------------------------------------|
B|----------------------------------------------------------------|
G|----------------------------------------------------------------|
D|--4--7--4-------------------------------------------------------|
A|--2--5--2-------------------------------------------------------|
D|----------------------------------------------------------------|x4

Fixations
My problems
Fixations
My problems

************************************

| /   slide up
| \   slide down
| h   hammer-on
| p   pull-off
| ~   let ring
| +   harmonic
| x   Mute note
| b   Bend
| pb  Pre-bend
| br  Bend release
| pbr Pre-bend release
| brb Bend release bend

************************************
Добавлено: 01.03.2016
Другие материалы по этой песне:
  • Аккорды и текст

Страница создана 01.03.2016
http://primanota.ru/dz-deathrays/fixations-chords.htm
Привет, Гость.
Предлагаем пройти революционный курс по гитаре.
Подарок от PrimaNota.Ru, забирай!