PrimaNota.ru - самый крупный в мире бесплатный архив песенных текстов, аккордов, табулатур и нот


Dz Deathrays - Black Rat - таба, видео

Регистрация Запомнить меня
Войти через:  Facebook Google Twitter Vk Yandex Mail.ru

Dz Deathrays - Black Rat - таба, видео

Печатать
Просмотров: 81
Tabbed by Modnarandom

Tuning: Drop D

Please comment any corrections below

Verse

e|----------------------------------------------------------------|
B|----------------------------------------------------------------|
G|-----------------------------7-7--------7/----------------------|
D|----------------------------------------------------------------|
A|--5---7---3-------------5555-------5555-------------------------|
D|----------------------------------------------------------------|x4


Running through the streets to the black hole pubs
I'm a black rat with a crawlspace love
My body still hangs over every bar
Trapped inside my last rat hole

Prechorus

e|---------------------------------------------------|
B|---------------------------------------------------|
G|-----------------8-8-------------------------------|
D|-------8-8-----------------8-8-------7-7-----------|
A|---------------------------------------------------|
D|---8-8-------8-8-------8-8-------8-8---------------|

Why leave it too long?

e|-----------------5-5-------6-6-------5-5-----------|
B|-------8--8----------------------------------------|
G|---------------------------------------------------|
D|---------------------------------------------------|
A|---------------------------------------------------|
D|---5-5-------5-5-------5-5-------5-5---------------|

e|---------------------------------------------------|
B|---------------------------------------------------|
G|-----------------8-8-------------------------------|
D|-------8-8-----------------8-8-------7-7-----------|
A|---------------------------------------------------|
D|---8-8-------8-8-------8-8-------8-8---------------|

It could never go wrong

e|-----------------5-5-------6-6-------131313131512--|
B|-------8--8----------------------------------------|
G|---------------------------------------------------|
D|---------------------------------------------------|
A|---------------------------------------------------|
D|---5-5-------5-5-------5-5-------------------------|


Chorus

e|--------------------------------------|
B|--------------------------------------|
G|------7-8-------------8-7-------------|
D|--------------3-5-------------7-7-----|
A|--5-5-----6-6-------------------------|
D|------------------8-8-----8-8---------|x2

Time is best spent
Being wasted on
Laughter calling
Homesick for a haunted home

e|----------------------------------------|
B|----------------------------------------|
G|----------------------------------------|
D|----------------------------------------|
A|--5-5-5-5-6-6------------6-------6------|
D|--------------10-10-8-88----8-88--------|x2

I've been, I've been here way too long
I've been, I've been here way too long


Verse

e|----------------------------------------------------------------|
B|----------------------------------------------------------------|
G|-----------------------------7-7--------7/----------------------|
D|----------------------------------------------------------------|
A|--5---7---3-------------5555-------5555-------------------------|
D|----------------------------------------------------------------|x4


Falling through the cracks of the city I love
Looking for someone a century ago
Hoped that it would be 'till death do us part
Ended up being dead from the start

Prechorus

e|---------------------------------------------------|
B|---------------------------------------------------|
G|-----------------8-8-------------------------------|
D|-------8-8-----------------8-8-------7-7-----------|
A|---------------------------------------------------|
D|---8-8-------8-8-------8-8-------8-8---------------|

Why leave it too long?

e|-----------------5-5-------6-6-------5-5-----------|
B|-------8--8----------------------------------------|
G|---------------------------------------------------|
D|---------------------------------------------------|
A|---------------------------------------------------|
D|---5-5-------5-5-------5-5-------5-5---------------|


e|---------------------------------------------------|
B|---------------------------------------------------|
G|-----------------8-8-------------------------------|
D|-------8-8-----------------8-8-------7-7-----------|
A|---------------------------------------------------|
D|---8-8-------8-8-------8-8-------8-8---------------|

It could never go wrong

e|-----------------5-5-------6-6-------131313131512--|
B|-------8--8----------------------------------------|
G|---------------------------------------------------|
D|---------------------------------------------------|
A|---------------------------------------------------|
D|---5-5-------5-5-------5-5-------------------------|

Chorus

e|--------------------------------------|
B|--------------------------------------|
G|------7-8-------------8-7-------------|
D|--------------3-5-------------7-7-----|
A|--5-5-----6-6-------------------------|
D|------------------8-8-----8-8---------|x2

Time is best spent
Being wasted on
Laughter calling
Homesick for a haunted home

e|----------------------------------------|
B|----------------------------------------|
G|----------------------------------------|
D|----------------------------------------|
A|--5-5-5-5-6-6------------6-------6------|
D|--------------10-10-8-88----8-88--------|x2

I've been, I've been here way too long
I've been, I've been here way too long

Bridge

e|-------------------------------------------------------------------|
B|-------------------------------------------------------------------|
G|--8-8-8-8-8-8-8-8-8-8-8-8-8-8-8-8-8-8-8-8-8-8-8-8-8-8-8-8-8-8-8-8--|
D|-------------------------------------------------------------------|
A|--6-6-6-6-6-6-6-6-6-6-6-6-6-6-6-6-6-6-6-6-6-6-6-6-6-6-6-6-6-6-6-6--|
D|-------------------------------------------------------------------| (acoustic)

e|-------------------------------------------------------------111111111010~-|
B|---------------------------------------8b------10b------11b----------------|
G|--8-------8-------8-----------------8-------8-------8----------------------|
D|---------------------------------------------------------------------------|
A|--6-------6-------6-----------5-----6-------6-------6----------------------|
D|--------------------------8888--7------------------------------------------|

Prechorus

e|---------------------------------------------------|
B|---------------------------------------------------|
G|-----------------8-8-------------------------------|
D|-------8-8-----------------8-8-------7-7-----------|
A|---------------------------------------------------|
D|---8-8-------8-8-------8-8-------8-8---------------|

Why leave it too long?

e|-----------------5-5-------6-6-------5-5-----------|
B|-------8--8----------------------------------------|
G|---------------------------------------------------|
D|---------------------------------------------------|
A|---------------------------------------------------|
D|---5-5-------5-5-------5-5-------5-5---------------|


e|---------------------------------------------------|
B|---------------------------------------------------|
G|-----------------8-8-------------------------------|
D|-------8-8-----------------8-8-------7-7-----------|
A|---------------------------------------------------|
D|---8-8-------8-8-------8-8-------8-8---------------|

It could never go wrong

e|-----------------5-5-------6-6-------131313131512--|
B|-------8--8----------------------------------------|
G|---------------------------------------------------|
D|---------------------------------------------------|
A|---------------------------------------------------|
D|---5-5-------5-5-------5-5-------------------------|

Chorus

e|--------------------------------------|
B|--------------------------------------|
G|------7-8-------------8-7-------------|
D|--------------3-5-------------7-7-----|
A|--5-5-----6-6-------------------------|
D|------------------8-8-----8-8---------|x2

Time is best spent
Being wasted on
Laughter calling
Homesick for a haunted home

e|----------------------------------------|
B|----------------------------------------|
G|----------------------------------------|
D|----------------------------------------|
A|--5-5-5-5-6-6------------6-------6------|
D|--------------10-10-8-88----8-88--------|x4 

I've been, I've been here way too long
I've been, I've been here way too long

Outro

e|----------------------------------------------------------------|
B|----------------------------------------------------------------|
G|-----------------------------7-7--------7/----------------------|
D|----------------------------------------------------------------|
A|--5---7---3h------------5555-------5555---------5---7---3-------|
D|----------------------------------------------------------------|


I'm a black rat with a crawlspace love
Yeah

************************************

| /   slide up
| \   slide down
| h   hammer-on
| p   pull-off
| ~   let ring
| +   harmonic
| x   Mute note
| b   Bend
| pb  Pre-bend
| br  Bend release
| pbr Pre-bend release
| brb Bend release bend

************************************
Добавлено: 01.03.2016
Другие материалы по этой песне:
  • Аккорды и текст

Страница создана 01.03.2016
http://primanota.ru/dz-deathrays/black-rat-chords.htm
Привет, Гость.
Предлагаем пройти революционный курс по гитаре.
Подарок от PrimaNota.Ru, забирай!